» » »

Radiohead, Bangers N Mash Tabs (ver.4)

Artists:  A B C D E F G H I J K L M N O P Q R S T U V W X Y Z # 

Bangers N Mash Tabs (ver.4)

Radiohead Tabs
 Rating:
4/5 (4 votes)
Bangers N Mash lessons Tabs too difficult? Try these video lessons and learn fast
                
This is a tab to the album version of Bangers and Mash from the b-sides of In Rainbows.

Tuning:

guitar 1(Jonny) DADGBE
guitar 2(Ed) EADGBE

Intro Riff:

guitar 1                                            
e|-----------------------------------------------------|
B|-----------------------------------------------------|
G|-----------------------------------------------------|
D|-----------------------------------------------------|
A|------------/10------------------/10-----------------|
D|--5-7-0-7-------12-----5-7-0-7-------12--------------|

guitar 2 (comes in at 0:13)
e|------------------------------------------------------|
B|------------------------------------------------------|
G|--6-6--7---6-6--7---6-6--7----------------------------|
D|--7-7--7---7-7--7---7-7--7----------------------------|
A|--7-7--5---7-7--5---7-7--5----------------------------|
E|--5-5------5-5------5-5-------------------------------|


"You bit me, you bit me..."
e|-----------------------------------------------------|
B|-----------------------------------------------------|
G|-----------------------------------------------------|
D|--7-77--------7-77--------7-77--------7-77-----------|
A|-------5-7-5-------5-7-5-------5-7-5-------5-7-5-----|
D|-----------------------------------------------------|

Then at 0:49 both guitars go back to the intro

All those previous riffs are repeated for awhile, then at 2:00

guitar 1
e|----------------------|
B|---------------------.|
G|----------------------|
D|---7h5-7/-10--7h5--5--|
A|---------------------.|
D|----------------------|

guitar 2 (those are 10s and 12s)
e|-----------------------------------------------------|
B|---10101010108888881010101012121210101088------------|
G|-----------------------------------------------------|
D|-----------------------------------------------------|
A|-----------------------------------------------------|
E|-----------------------------------------------------|
      ^tremelo pick


After the drum and bass part Jonny plays this
guitar 1
e|-----------------------------------------------------|
B|-----------------------------------------------------|
G|--7-7----------7-7---------7-7--------7-7------------|
D|-----------------------------------------------------|
A|-----------------------------------------------------|
D|-------7-x-7-------7-x-7-------7-x-7------7-x-7------|


Then just play the intro riff at the end
guitar 1                                            
e|-----------------------------------------------------|
B|-----------------------------------------------------|
G|-----------------------------------------------------|
D|-----------------------------------------------------|
A|------------/10------------------/10-----------------|
D|--5-7-0-7-------12-----5-7-0-7-------12--------------|

guitar 2
e|------------------------------------------------------|
B|------------------------------------------------------|
G|--6-6--7---6-6--7---6-6--7----------------------------|
D|--7-7--7---7-7--7---7-7--7----------------------------|
A|--7-7--5---7-7--5---7-7--5----------------------------|
E|--5-5------5-5------5-5-------------------------------|

then at 3:03
e|-----------------------------------------------------|
B|--101010101010/121212121212/101010~xxxxxxxxx---------|
G|-----------------------------------------------------|
D|-----------------------------------------------------|
A|-----------------------------------------------------|
D|-----------------------------------------------------|
     ^tremelo pick

There you go. If you found any corrections good for you.
            
Submit corrections

comments powered by Disqus
↑ Back to top | Radiohead Tabs for Bangers N Mash. Lyrics for acoustic guitar and electric guitar. Tablatures and chords are parodies/interpretations of the original songs. You may use it for private study, scholarship, research or language learning purposes only