» » »

Radiohead, A Punch-Up At The Wedding Bass tabs (ver.1)

Artists:  A B C D E F G H I J K L M N O P Q R S T U V W X Y Z # 

A Punch-Up At The Wedding Bass tabs (ver.1)

Radiohead Tabs
Rating:
0/5 (0 votes)
A Punch-Up At The Wedding lessons Tabs too difficult? Try these video lessons and learn fast
                Instrument: Bass

Intro:

G|-----9~--7-4---------|
D|-------------5-------|
A|-7~------------------|
E|---------------------|

Main:

G|--9-9--9~-7-4--------|
D|--------------5------|
A|-7-7-----------------|
E|---------------------|

END
            
Submit corrections

comments powered by Disqus
↑ Back to top | Radiohead Bass for A Punch-Up At The Wedding. Lyrics for acoustic guitar and electric guitar. Tablatures and chords are parodies/interpretations of the original songs. You may use it for private study, scholarship, research or language learning purposes only