>
 >
15 Step 4

15 Step 4 Guitar Tabs

Radiohead - 15 Step 4 chords, tabs, tablatures, lyrics

Guitar lessons | Add/correct | Request | Top 50 tabs Artists:  A B C D E F G H I J K L M N O P Q R S T U V W X Y Z 0-9

15 Step 4 Guitar Tabs – Radiohead

CD, Sheet music, Poster

Do you like 15 Step 4? Share with your friends now
Bass TabsBass Tabs v2Bass Tabs v3ChordsChords v2TabsTabs v2Tabs v3Tabs v4Tabs v5Ukulele


      E.  E  S E  T T S E.  E  S E  T T S  
E||---------------------------------------|
B||-------4-------4-5-6-----6----4--5-6-7-|
G||*------4----6------------6-------------|
D||*--------------------------------------|
A||---------------------4------4----------|
E||---4------4----------------------------|


  E.  E  S E  E  E.  E  S E  T T S  4x  E.  E  S E  T T S E.  E  S S S E   
------6----6---------4----4---------||------------------------------------|
------7----6---------6----4---------||------4-------4-5-6-----6----4-6-7--|
--------------8--------------6-5-4-*||------4----6------------6-----------|
-----------------------------------*||------------------------------------|
--6------6-------4------4-----------||--------------------4------4--------|
------------------------------------||--4------4--------------------------|


  E.  E  S E  E  E.  E  S E  E     E.  E  S S S E   E.  E   S  S  S  E   
------6----6---------4----4-----|------7----------------9---------------|
------7----6---------6----4-----|------7----9-7---------9-----11-12-----|
--------------8--------------6--|--8------8-----8--10------10-------10--|
--------------------------------|---------------------------------------|
--6------6-------4------4-------|---------------------------------------|
--------------------------------|---------------------------------------|


   E.   E   S  S  S  E   E.  E   S  S  S  S S  
-------11--------------------9----------------|
-------11-----12-11----------9-----11-12----9-|
--11-------11-------11--10------10-------10---|
----------------------------------------------|
----------------------------------------------|
----------------------------------------------|


  E.  E  S S S E   E.   E   S  S S  E     E.   E  S  E  E   E.   E   S E   E   
------7--------------------------------|------11------------------------------|
------7----9-7----------9-----11-9-----|------11-----------------9------------|
--8------8-----8-------10----------10--|------11----10--8-------10------------|
------------------11-------11----------|--9-------9--------------------9------|
---------------------------------------|-------------------11-------11----11--|
---------------------------------------|--------------------------------------|


  E.  E  S S S E   E.  E   S  S  S  E   
------7----------------9---------------|
------7----9-7---------9-----11-12-----|
--8------8-----8--10------10-------10--|
---------------------------------------|
---------------------------------------|
---------------------------------------|


   E.   E   S  S  S  E   E.  E   S  S  S  S S  
-------11--------------------9----------------|
-------11-----12-11----------9-----11-12----9-|
--11-------11-------11--10------10-------10---|
----------------------------------------------|
----------------------------------------------|
----------------------------------------------|


  E.  E  S S S E   E.   E   S  S S  E     E.   E  S  E  E   E.   E   S Q     
------7--------------------------------|------11----------------------------|
------7----9-7----------9-----11-9-----|------11-----------------9-----9----|
--8------8-----8-------10----------10--|------11----10--8-------10-----8----|
------------------11-------11----------|--9-------9-------------------------|
---------------------------------------|-------------------11-------11------|
---------------------------------------|------------------------------------|


  E.   E.   E  E  E.   E.   E  E     E.   E.   E  E  E.   E.   E  E   
----------------------------------|----------------------------------|
---------------9---------------9--|---------------8---------------8--|
--9---------------9---------------|--8---------------8---------------|
------11--------------11----------|------10--------------10----------|
-----------11--------------11-----|-----------10--------------10-----|
----------------------------------|----------------------------------|


  E.  E  S E  S S E.  E  S E  E     E.  E  S E  S S E.  E  S E  E   
---------------------------------|---------------------------------|
------4----2---------------------|------4----2------------------4--|
------4-------4-3-----3----4--3--|------4-------4-3-----3----4-----|
---------------------------------|---------------------------------|
---------------------------------|---------------------------------|
--4------4--------4------4-------|--4------4--------4------4-------|


  E.  E  S E  S S E.  E  S E  E     E.  E  S E  S S E.  E  S E  E   
---------------------------------|---------------------------------|
------4----2---------------------|------4----2----------4----------|
------4-------4-3-----3----4--3--|------4-------4-3----------4--3--|
---------------------------------|---------------------------------|
---------------------------------|---------------------------------|
--4------4--------4------4-------|--4------4--------4------4-------|


  E.  E  S E  T T S E.  E  S E  T T S    E.  E  S E  E  E.  E  S E  T T S  
--------------------------------------|------6----6---------4----4--------|
------4-------4-5-6-----6----4--5-6-7-|------7----6---------6----4--------|
------4----6------------6-------------|--------------8--------------6-5-4-|
--------------------------------------|-----------------------------------|
--------------------4------4----------|--6------6-------4------4----------|
--4------4----------------------------|-----------------------------------|


  E.  E  S E  T T S E.  E  S S S E     E.  E  S E  E  E.  E  S E  E   
------------------------------------|------6----6---------4----4-----|
------4-------4-5-6-----6----4-6-7--|------7----6---------6----4-----|
------4----6------------6-----------|--------------8--------------6--|
------------------------------------|--------------------------------|
--------------------4------4--------|--6------6-------4------4-------|
--4------4--------------------------|--------------------------------|


  E.  E  S S S E   E.  E   S  S  S  E   
------7----------------9---------------|
------7----9-7---------9-----11-12-----|
--8------8-----8--10------10-------10--|
---------------------------------------|
---------------------------------------|
---------------------------------------|


   E.   E   S  S  S  E   E.  E   S  S  S  S S  
-------11--------------------9----------------|
-------11-----12-11----------9-----11-12----9-|
--11-------11-------11--10------10-------10---|
----------------------------------------------|
----------------------------------------------|
----------------------------------------------|


  E.  E  S S S E   E.   E   S  S S  E     E.   E  S  E  E   E.   E   S Q     
------7--------------------------------|------11----------------------------|
------7----9-7----------9-----11-9-----|------11-----------------9-----9----|
--8------8-----8-------10----------10--|------11----10--8-------10-----8----|
------------------11-------11----------|--9-------9-------------------------|
---------------------------------------|-------------------11-------11------|
---------------------------------------|------------------------------------|


   W                Q      
-------------------------||
-------------------------||
-------------------------||
-------------------------||
--11----------------L----||
-------------------------||




Duration Legend
---------------
W - whole
H - half
Q - quarter
E - 8th
S - 16th
T - 32nd
X - 64th
. - note dotted
|-n-|  - n-tuplets





Comments


Popular Radiohead tabs & chords
Meeting In The Aisle 3 Bass Tabs
Paperbag Writer 3 Bass Tabs
Subterranean Homesick Alien Chords
A Wolf At The Door Tabs
Go Slowly 4 Tabs
Nude 1 Tabs
Polyethylene 3 Tabs
Sail To The Moon 3 Tabs
Creep Ukulele
Life In A Glass House Ukulele


Song lyrics



↑ Back to top | Tablatures and chords are parodies/interpretations of the original songs. You may use it for private study, scholarship, research or language learning purposes only
© 2014 AZChords.com Contact us | Privacy policy | DMCA | Add/correct tabs | Request tabs | Top 50 tabs