» » »

Dance To The Underground Bass tabs (ver.1)

Artists:  A B C D E F G H I J K L M N O P Q R S T U V W X Y Z # 

Dance To The Underground Bass tabs (ver.1)

Radio 4
Rating:
5/5 (2 votes)

Hard to play? Try these video lessons and learn fast.
                Band: Radio 4	
Bassist: Anthony Roman


INTRO/VERSE:

g --------------------------------|
d --------------------------------|.
a ---------------3--3--3-3/12\\---|.
E -5--5--5-3-5-3------------------|


CHORUS:

g ---------------------------------------------------|
d ------------------------5-5------------------------|
a --7--7--7-5-5-7--7--7-7----7--7--7-5-5-7--7--7-9-9-|
E ---------------------------------------------------|


g -------------------------------------------------|
d ------------------------5-5-------------------9--|
a --7--7--7-5-5-7--7--7-7----7--7--7-5-5-7--9-10---|
E -------------------------------------------------|



GREAT GREAT SONG!!
            
Hard to play? Try these video lessons and learn fast. | Correct




comments powered by Disqus
↑ Back to top | Tablatures and chords are parodies/interpretations of the original songs. You may use it for private study, scholarship, research or language learning purposes only