>
 >
Wrapped In Piano Strings

Wrapped In Piano Strings Guitar Tabs

Radical Face - Wrapped In Piano Strings chords, tabs, tablatures, lyrics

Guitar lessons | Add/correct | Request | Top 50 tabs Artists:  A B C D E F G H I J K L M N O P Q R S T U V W X Y Z 0-9

Wrapped In Piano Strings Guitar Tabs – Radical Face

CD, Sheet music, Poster

Do you like Wrapped In Piano Strings? Share with your friends now
TabsTabs v2
The other tab for this song has it as capo 3, but to actually play the whole song, it 
be on capo 1.

Tuning: Standard

Capo 1
all chords relative to capo

Chords used in song:

 A      Dmaj7   E    f#min    D
---     -0-    -0-   -2-     -0-|
-2-     -2-    -0-   -2-     -3-|
-2-     -2-    -1-   -2-     -2-|
-2-     -0-    -2-   -4-     -0-|
-0-     ---    -2-   -4-     ---|
---     ---    -0-   -2-     ---|

(Note, I don't actually know if that is a Dmaj7, but when I refer to it in the tab, this 
the form I am referring to.)

Intro: Play whole thing twice
fingerpicked

   A                                          E
|---------------------------------------------------------------|
|---0h2-----2----2p0-----0----0h2------2------2p0-------0-------|
|-------2-----2------2-----2------2-------2--------1--------1---|
|---------2------------2------------2-----------------2---------|
|---0------------0------------0---------------0-----------------|
|---------------------------------------------------------------|

   Dmaj7                                     E
|--------------------------------------------0-------------------|
|---0h2-----2----2p0-----0----0h2------2-------0-------0---------|
|-------2-----2------2-----2------2-------2------1--------1------|
|---0-----0------0-----0------0-----0--------2------2------------|
|----------------------------------------------------------------|
|----------------------------------------------------------------|


Verses: Same pattern for each verse
Strummed

I like to strum the chords while adding little hammer ons and pull offs on the b string, 
the intro is, but that's just how I play it.


 A
I saw your father in the hall
 A           E
His ghost is living in the walls
 Dmaj7
I heard him crying while you slept
 Dmaj7       E
I heard him breaking things after you left

 A
I watched you crawl into my bed
 A          E
With curses spilling from your head
 Dmaj7
You said "We're just the walking dead"
 Dmaj7          E
So I pulled the trigger and we floated off


Chorus:

 A                     E
Into the air, Into the air
Dmaj7                  E
Into the air, Into the air
 A                          E
Up in the air, We're in the air
Dmaj7                    E
Up in the air, Up in the air

Solo
this is played right after the chorus

|-------------------------------------------------------------|
|-------------------------------------------------------------|
|------------------------------------------9-9-9/11\6-6\------|
|--2-2-2/7-7-7/9-9-9/11-11-11\9-9/11\7-7/9-0-0-0-0--0-0-------|
|--0-0-0-0-0-0-0-0-0-0--0--0--0-0-0--0-0-0--------------------|
|-------------------------------------------------------------|

|-----------------------------------------------------------------------|
|-----------------------------------------------------------------------|
|------------------------------------------9-9-9/11\6-6/9~--9~--9~--9~--|
|--2-2-2/7-7-7/9-9-9/11-11-11\9-9/11\7-7/9-0-0-0-0--0-0-7~--7~--7~--7~--|
|--0-0-0-0-0-0-0-0-0-0--0--0--0-0-0--0-0-0--------------0~--0~--0~--0~--|
|-----------------------------------------------------------------------|

|----------------------------|
|----------------------------|
|------9-----9-----9-----9---|
|---7--7--7--7--7--7--7--7---|
|---0-----0-----0-----0------|
|----------------------------|


This is the pump organ part played under the solo transcribed from the guitar. It's not 
but sounds nice if you have two guitars.
(This can be played up or down an octave)

|-------------------------------------------------------------|
|--------------0-------5--2-----0----2------------------------|
|-------2-------------------------------2----4--2-------------|
|-2---------------------------------------------------4-------|
|-------------------------------------------------------------|
|-------------------------------------------------------------|


|-------------------------------------------------------------|
|--------------0----5--2------0----2--------------------------|
|-------2-----------------------------2----4--2---------2~----|
|-2------------------------------------------------4----------|
|-------------------------------------------------------------|
|-------------------------------------------------------------|


Bridge:

F#min   E     D    A
I     sank   into  the  sea
F#min   E     D    A
Wrapped    in   piano   strings
F#min   E     D    A
Few    words   could  open  me
F#min   E        D
But   you   knew  them  all


Song Order

(Intro x2)

(Verse)
I saw your father in the hall
His ghost is living in the walls
I heard him crying while you slept
I heard him breaking things after you left

I watched you crawl into my bed
With curses spilling from your head
You said "We're just the walking dead"
So I pulled the trigger and we floated off

(Chorus)

Into the air, Into the air
Into the air, Into the air
Up in the air, We're in the air
Up in the air, Up in the air

(Solo)


(Verse)
I used to worry about the time
That I lost my teeth along the line
So I carved the apple from my eye
And gave it to you before I went away

Blood ran into the kitchen sink
Your hand and lives are running pink
I sat and watched you as your ring
Slipped off and rolled across the kitchen floor

(This part is still the verse chords, but the strumming pattern changes)

They cut your eyes wide open
And pour into your precious head
My reach don't go that far dear
But please oh please don't let them in


(Bridge)
I sank into the sea
Wrapped in piano strings
Few words could open me
But you knew them all


(Verse)
Now I just sleep beneath your floor
My ghost just tries to keep you warm
I've seen the end, I've lost the war
One day you're 20 years just like the rain


(Chorus)
I hear the engines
They're roaring in our mouths
The smell of creatures
Are falling tooth and nail to get out


I see the airplanes
They're pouring from the chest
They fill the air
And burn and bury just like the rest

(Chorus till end)

End on A





Comments


Popular Radical Face tabs & chords
Along The Road Chords
Black Eyes Chords
Severus And Stone Chords
Severus And Stone 1 Chords
We All Go The Same Chords
Welcome Home 4 Chords
Welcome Home Son 2 Chords
Always Gold Ukulele
Chewing Bottles Ukulele
Paper Birds Ukulele


Song lyrics



↑ Back to top | Tablatures and chords are parodies/interpretations of the original songs. You may use it for private study, scholarship, research or language learning purposes only
© 2014 AZChords.com Contact us | Privacy policy | DMCA | Add/correct tabs | Request tabs | Top 50 tabs