» » »

Radical Face, Always Gold Tabs (ver.1)

Artists:  A B C D E F G H I J K L M N O P Q R S T U V W X Y Z # 

Always Gold Tabs (ver.1)

Radical Face Tabs
 Rating:
4/5 (4 votes)
Always Gold lessons Tabs too difficult? Try these video lessons and learn fast
1
                (Intro)
-----------------------------------------------------------------------------
                             Always Gold - Radical Faces
-----------------------------------------------------------------------------

Tuning: Standard, Capo-1

Hey guys! I love the fingerpicking intro to this song, but I couldn't find a tab 
for it. So here it is! (This is my first tab, so I hope it's not too bad)
Please e-mail me any corrections. Enjoy!

e|----------------------------------------x---------------------------------|
B|----------------------------------------1---------------------------------|
G|-2-----0-------0-------------------0----2---2h4---------------------------|
D|---3-----3---2---2---2p0---0---------0--2-2-------------------------------|
A|-----0-----0-------3-----3-----0h2------x---------------------------------|
E|-----------------------------3----------x---------------------------------|

e|----------------------------------------x---------------------------------|
B|----------------------------------------1---------------------------------|
G|-2-----0-------0-------------------0----0---------------------------------|
D|---3-----3---2---2---2p0---0---------0--2---------------------------------|
A|-----0-----0-------3-----3-----0h2------3---------------------------------|
E|-----------------------------3----------x---------------------------------|

(2x)
            
Submit corrections

comments powered by Disqus
↑ Back to top | Radical Face Tabs for Always Gold. Lyrics for acoustic guitar and electric guitar. 1 Tablatures and chords are parodies/interpretations of the original songs. You may use it for private study, scholarship, research or language learning purposes only