» » »

Racoon, Oceaan Tabs (ver.2)

Artists:  A B C D E F G H I J K L M N O P Q R S T U V W X Y Z # 

Oceaan Tabs (ver.2)

Racoon Tabs
 Rating:
4/5 (4 votes)
Oceaan lessons Tabs too difficult? Try these video lessons and learn fast
                Capo 2

Intro&Verses:
    G               Em                 G               Em
E|----------------------------------|----------------------------------|
B|----------------------------------|----------------------------------|
G|------------------0h2---0---------|----------------------------------|
D|------------0-----------------2h0-|------------0-----0h2---0---------|
A|------0h2-----2-------2-----------|------0h2-----2-------2-------2h0-|
E|--3-------3-------0-------0-------|--3-------3-------0-------0-------|



Chorus:
    C               Am                 Em              D
E|----------------------------------|--------0-------------2-------2h3-|
B|--------1---------------1---------|------------0---------------------|
G|------0---------------2-----------|----------------------2-------2---|
D|--------------2h0-------------2---|------------------0-------0-------|
A|--3-------3-------0-------0-------|------2-------2-------------------|
E|----------------------------------|--0-------3-----------------------|

    C               Am                 Em              D
E|----------------------------------|--------0-------------2-------2h3-|
B|--------1-------------3h1-----0---|------0---------------------------|
G|------0---------------------------|--------------0-------2-------2---|
D|--------------2h0-----------------|------------------0-------0-------|
A|--3-------3-------0-------0-------|----------------------------------|
E|----------------------------------|--0-------3-----------------------|

    C               Am                 Em              D
E|----------------------5-----------|--------0-------------2-------2h3-|
B|--------1---------------5-----0---|------0---------------------------|
G|------0---------------------------|--------------0-------2-------2---|
D|--------------2h0-----------------|------------------0-------0-------|
A|--3-------3-------0-------0-------|----------------------------------|
E|----------------------------------|--0-------3-----------------------|
    
    C               Am                 Em              D
E|----------------------------------|--------0-------------2-------2h3-|
B|--------1---------------1---------|------------0---------------------|
G|------0---------------2-----------|----------------------2-------2---|
D|--------------2---------------2---|------------------0-------0-------|
A|--3-------3-------0-------0-------|------2-------2-------------------|
E|----------------------------------|--0-------3-----------------------|

Welke akkoorden er echter in de Bridge worden gespeeld is mij een raadsel...
            
Submit corrections

comments powered by Disqus
↑ Back to top | Racoon Tabs for Oceaan. Lyrics for acoustic guitar and electric guitar. Tablatures and chords are parodies/interpretations of the original songs. You may use it for private study, scholarship, research or language learning purposes only