» » »

Rachel Stamp, Ladies And Gents Bass tabs (ver.1)

Artists:  A B C D E F G H I J K L M N O P Q R S T U V W X Y Z # 

Ladies And Gents Bass tabs (ver.1)

Rachel Stamp Tabs
 Rating:
4/5 (4 votes)
Ladies And Gents lessons Tabs too difficult? Try these video lessons and learn fast
1
                Standard Tuning - E A D G

Intro:
G|-------------------|
D|-------------------|
A|-2-2-2-2-----------|
E|-------------------|

Verse:
G|-------------------------|
D|-------------------------|
A|-2-2-------------------2-|
E|-----4-4-5-5-2-4-2-------|

Chorus:
G|---------------------------------|
D|---------------------------------|
A|-2-2-2-2-2-2-2-2-5-5-5-5-5-5-5-5-|
E|---------------------------------|

G|---------------------------------|
D|-3-3-3-3-3-3-3-3-6-6-6-6-6-6-6-6-|
A|---------------------------------|
E|---------------------------------|

G|---------------------------------|
D|---------------------------------|
A|-2-2-2-2-2-2-2-2-5-5-5-5-5-5-5-5-|
E|---------------------------------|

G|---------------------------------|
D|-3-3-3-3-3-3-3-3-6-6-6-6-6-6-6-6-|
A|---------------------------------|
E|---------------------------------|

Breakdown:
G|-------------------|
D|-------------------|
A|-2-2-2-2--(x4)-----|
E|-------------------|

Outro:
G|----------------------|
D|----------------------|
A|-2-2-2-2--(x4-2-2-1---|
E|--------------------2-|
            
Submit corrections

comments powered by Disqus
↑ Back to top | Rachel Stamp Bass for Ladies And Gents. Lyrics for acoustic guitar and electric guitar. 1 Tablatures and chords are parodies/interpretations of the original songs. You may use it for private study, scholarship, research or language learning purposes only