» » »

I Got The Worm Bass tabs (ver.1)

Artists:  A B C D E F G H I J K L M N O P Q R S T U V W X Y Z # 

I Got The Worm Bass tabs (ver.1)

Rachel Stamp
Rating:
0/5 (0 votes)

Hard to play? Try these video lessons and learn fast.
                Rachel stamp from their self titled album.

I got the worm basstab


You'll have to listen to the song to get the idea, and the order.

G:------------------
D:------------------
A:-6-6--------------
E:-----5-5-6-6-7-7--



G:----------------------------------
D:----------------------------------
A:----------------------------------
E:-3-3-3-3/9-9-9-9-3-3-3-3/8-8-8-8--

G:----------------------------------
D:----------------------------------
A:-----------------6-6--------------
E:-3-3-3-3/9-9-9-9-----5-5-6-6-7-7--



G:-----------------------------------
D:-----------------------------------
A:-------------------6-6-------------
E:-3-3---3-3---3-3-------5-5-6-6-7-7-



G:----------------------------------------------------
D:----------------------------------------------------
A:-6-6-----7-7-----8-8-----9-9-----10-10--------10-10-
E:-----5-5-----6-6-----7-7-----8-8--------------------

That's it, enjoy.
            
Hard to play? Try these video lessons and learn fast. | Correct




comments powered by Disqus
↑ Back to top | Tablatures and chords are parodies/interpretations of the original songs. You may use it for private study, scholarship, research or language learning purposes only