» » »

Rachel Stamp, Home Made Sex Change Bass tabs (ver.1)

Artists:  A B C D E F G H I J K L M N O P Q R S T U V W X Y Z # 

Home Made Sex Change Bass tabs (ver.1)

Rachel Stamp Tabs
Rating:
0/5 (0 votes)
Home Made Sex Change lessons Tabs too difficult? Try these video lessons and learn fast
                This song is fairly simple


Verse/Chorus

G|-------------------------------------------------------------|
D|-------------------------------------------------------------|
A|--------7---4-5--7-7---4-5-----------------------------------I
E|---0---------------------------------------------------------|


Verse Variation

G|-------------------------------------------------------------|
D|-------------------------------------------------------------|
A|--------3-5-------0--3-5-------------------------------------I
E|----0--------3-5---------------------------------------------|


'Gonna do it alrite' Part

G|-------------------------------------------------------------|
D|-------------------------------------------------------------|
A|--2-2-2-2-2--------------------------------------------------I
E|-------------2-2-2-2-2-2----4-4-4-4-4-4----------------------|



And thats about it!

simple see =oP

Love sean
----z----
            

comments powered by Disqus
↑ Back to top | Rachel Stamp Bass for Home Made Sex Change. Lyrics for acoustic guitar and electric guitar. Tablatures and chords are parodies/interpretations of the original songs. You may use it for private study, scholarship, research or language learning purposes only