» » »

Black Cherry Bass tabs (ver.1)

Artists:  A B C D E F G H I J K L M N O P Q R S T U V W X Y Z # 

Black Cherry Bass tabs (ver.1)

Rachel Stamp
Rating:
0/5 (0 votes)

Hard to play? Try these video lessons and learn fast.
                such sexy riffage

INTRO/VERSE

G|-------------------------------------------------------------|
D|-------------------------------------------------------------|
A|-------------------------------------------------------------I
E|--0-0-3-0--3-4-5-5-0-5-4-3---0-0-3-0-------------------------|


CHORUS

G|-------------------------------------------------------------|
D|--3--------------------------3--------3----------------------|
A|-----5---3-4-5-5----3-4-5-5-----5--------5---3-4-5-----------I
E|-------------------------------------------------------------|

G|-------------------------------------------------------------|
D|---5-5--4-4--3-3---------3-----------------------------------|
A|-------------------3-4-5----5--------------------------------I
E|-------------------------------------------------------------|


During the solo just random;y play high notes and it will sound OK =O) 


Enjoy the saultry sounds of hmmmm Prangley

Sean
--x--
            
Hard to play? Try these video lessons and learn fast. | Correct




comments powered by Disqus
↑ Back to top | Tablatures and chords are parodies/interpretations of the original songs. You may use it for private study, scholarship, research or language learning purposes only