» » »

Movie In Spanish Tabs (ver.1)

Artists:  A B C D E F G H I J K L M N O P Q R S T U V W X Y Z # 

Movie In Spanish Tabs (ver.1)

Rachael Cantu
Rating:
0/5 (0 votes)

Hard to play? Try these video lessons and learn fast.
                I'm pretty sure this is the correct tabs, or its very close.
It's pretty easy to play. Just listen to the song and you'll figure out the strum patterns.
Enjoy(:

Verse 1:
e|--9----6-----|
B|--9----6-----|
G|--10---6-----|
D|--11---8-----|
A|--11---8-----|
E|--9----6-----|
i watched a movie in spanish
it helped to kiss away my fears
or hearing que sera sera baby
the way they said it all those years
if i could hop a plane to mexico
just know i'd go right now
i hope i never make anyone as miserable
as you seem to be now


Pre Chorus:
e|--9-------------|
B|--9-------------|
G|--10------------|
D|--11------------|
A|--11------------|
E|--9-------------|
cuz everyone's on tv
the ceiling's caving in


Chorus:
e|--4---1--------|
B|--6---1--------|
G|--6---2--------|
D|--6---3--------|
A|--4---3--------|
E|--4---1--------|
and that's the way it is
and i'll be saying fine
yeah that's the way it is


Verse 2:
e|--9----6-----|
B|--9----6-----|
G|--10---6-----|
D|--11---8-----|
A|--11---8-----|
E|--9----6-----|
calling out on fallen minds
can't say you didn't hit me there
they say buck up baby you'll be fine
just pretend you didn't hear

i've got this new face on my mind
the bars in my back are aching
because you said you didn't want mine
yeah you said you didn't want mine

and i'll be here
and you will be gone
yeah i'll be here
and you will be gone

Pre Chorus:
e|--9-------------|
B|--9-------------|
G|--10------------|
D|--11------------|
A|--11------------|
E|--9-------------|
cuz everyone's on tv
the ceiling's caving in


Chorus:
e|--4---1--------|
B|--6---1--------|
G|--6---2--------|
D|--6---3--------|
A|--4---3--------|
E|--4---1--------|
and that's the way it is
and i'll be saying fine
yeah that's the way it is


e|--2---------|
B|--2---------|
G|--3---------|
D|--4---------|
A|--4---------|
E|--2---------|
i want you to look at
me like you want me here
i want them to tell tall tall tales
the same way you did last year
the same way you did last year
the same way you did

Chorus
            
Hard to play? Try these video lessons and learn fast. | Correct




comments powered by Disqus
↑ Back to top | Tablatures and chords are parodies/interpretations of the original songs. You may use it for private study, scholarship, research or language learning purposes only