>
 >
Viking Kong

Viking Kong Guitar Tabs

Racer X - Viking Kong chords, tabs, tablatures, lyrics

Guitar lessons | Add/correct | Request | Top 50 tabs Artists:  A B C D E F G H I J K L M N O P Q R S T U V W X Y Z 0-9

Viking Kong Guitar Tabs – Racer X

CD, Sheet music, Poster

Do you like Viking Kong? Share with your friends now
Tabs

Gtr I  (D G C F A D) - 'Paul Gilbert - dist electric'
Gtr II (D G C F A D) - 'Paul Gilbert - dist electric' 

You will hear easily each guitar if you listen in just one speaker (left or right).
I hope that the tab will not be too strange when I will post it.

Intro
 Gtr I
            PM------------------------------|
||-------||--5-----7-----8-----7-----5--------||
||-------||----5-----5-----5-----5-----5------||
||-----x-||o-----5-----5-----5-----5-----5---o||
||-------||o-------------------------------7-o||
||-------||-----------------------------------||
||-/20\--||-----------------------------------||


 PM----------------------|                               PM---|  
|-5-----7------8-----7-----5-------17p13---------------5-----------|
|---6-----6------6-----6-----6---------------------------6---------|
|-----5-----5------5-----5-----5/--------16-17-[14]~\------4-5-----|
|--------------------------------------------------------------[7]~|
|------------------------------------------------------------------|
|------------------------------------------------------------------|
|
| Gtr II                                            
|----------------------------------20p17----------------8-5---------|
|-------------------------------------------------------------------|
|----------------------------------------19-21-[17]~\-------7-9-[5]~|
|-------------------------------------------------------------------|
|-------------------------------------------------------------------|
|-------------------------------------------------------------------|


 PM------------------------------|
|-5-----7-----8-----7-----5-------|
|---5-----5-----5-----5-----5-----|
|-----5-----5-----5-----5-----5---|
|-------------------------------7-|
|---------------------------------|
|---------------------------------|
|
| PM--------------------------------------|
|-8------10------12------10------8---------|
|---10------10------10------10-----10------|
|------9-------9-------9-------9------9----|
|---------------------------------------10-|
|------------------------------------------|
|------------------------------------------|


 PM------------------------------|
|-5-----7-----8-----7-----5-------|
|---5-----5-----5-----5-----5-----|
|-----5-----5-----5-----5-----5---|
|-------------------------------7-|
|---------------------------------|
|---------------------------------|
|
| PM--------------------------------------|
|-8------10------12------10------8---------|
|---10------10------10------10-----10------|
|------9-------9-------9-------9------9h10-|
|------------------------------------------|
|------------------------------------------|
|------------------------------------------|


 PM----------------------|                                                      
|-5-----7------8-----7-----5------|
|---6-----6------6-----6-----6----|
|-----5-----5------5-----5-----5/-|
|---------------------------------|
|---------------------------------|
|---------------------------------|
|
| PM-------------------------------|                                                            
|-8-------10-------12-------10-------8--------|
|---10-------10-------10-------10------10-----|
|------10-------10-------10-------10------10/-|
|---------------------------------------------|
|---------------------------------------------|
|---------------------------------------------|


|-12-------10--------------------------------------|
|----10-------10----13-10h13p10----12p10----12b13~~|
|-------10-------10-------------10-------10--------|
|--------------------------------------------------|
|--------------------------------------------------|
|--------------------------------------------------|
|
|
|-15----------13--------------------------------------|
|----13----------13----17-13h17p13----15p13----15b17~~|
|-------14----------14-------------14-------14--------|
|-----------------------------------------------------|
|-----------------------------------------------------|
|-----------------------------------------------------|





    T      T       T      T       T     T       T        T         T     T 
|----------------------------------------------------------------------------|
|----------------------------------------------------------------------------|
|-------4(16)h5--------4(16)h5-------4(16)h5-5(17)b7==7(17)r5p4-------------|
|-7(19)~~--------7(19)~~--------7(19)----------------------------7(19)-6(18)~|
|----------------------------------------------------------------------------|
|----------------------------------------------------------------------------|
|
|   T      T       T      T       T     T       T        T         T     T 
|----------------------------------------------------------------------------|
|----------------------------------------------------------------------------|
|-------4(16)h5--------4(16)h5-------4(16)h5-5(17)b7==7(17)r5p4-------------|
|-7(19)----------7(19)----------7(19)----------------------------7(19)-6(18)-|
|----------------------------------------------------------------------------|
|----------------------------------------------------------------------------|


    T
|-------------------8h10h12-10h12p10p8-----------------|
|-----------9h10h12--------------------12-10-9---------|
|-7(19)b9\-------------------------------------10-9b10~|
|------------------------------------------------------|
|------------------------------------------------------|
|------------------------------------------------------|
|
|   T
|--------------------------------------------------------|
|-------------------10h12h13-12h13p12p10-----------------|
|-7(19)b9\--9h10h13----------------------13-10-9---------|
|------------------------------------------------12-9b10~|
|--------------------------------------------------------|
|--------------------------------------------------------|


    T      T       T      T       T     T       T        T         T     T 
|----------------------------------------------------------------------------|
|----------------------------------------------------------------------------|
|-------4(16)h5--------4(16)h5-------4(16)h5-5(17)b7==7(17)r5p4-------------|
|-7(19)~~--------7(19)~~--------7(19)----------------------------7(19)-6(18)~|
|----------------------------------------------------------------------------|
|----------------------------------------------------------------------------|
|
|    T      T       T      T        T     T       T         T           T     T         
|---------------------------------------------------------------------------------|
|---------------------------------------------------------------------------------|
|--------7(19)h9---------7(19)h9--------7(19)h9-9(21)b11==11(21)r9p7--------------|
|-10(22)---------10(22)----------10(22)------------------------------10(22)-9(21)-|
|---------------------------------------------------------------------------------|
|---------------------------------------------------------------------------------|


|--------------------12h13h16-13h16p13p12---------------------|
|-----------12h13h15----------------------15-13-12------------|
|-7(19)b9/------------------------------------------14-13b14~\|
|-------------------------------------------------------------|
|-------------------------------------------------------------|
|-------------------------------------------------------------|
|
|
|-----------------------------------------------------------|
|--------------------13h15h17-15h17p15p13-------------------|
|-11(23)b1313h14h16----------------------16-14-13----------|
|--------------------------------------------------15-14b15~|
|-----------------------------------------------------------|
|-----------------------------------------------------------|


|-----------------------------12h17----15b17~-|
|-----------------15----17-14-------15--------|
|-----------14-------14-----------------------|
|-12~-14h15----15-----------------------------|
|---------------------------------------------|
|---------------------------------------------|
|
|
|----------------------------------------------|
|-----------------18----20----20h22-18-17b18~--|
|-----------19-------19----21------------------|
|-15~-17h19----19------------------------------|
|----------------------------------------------|
|----------------------------------------------|


|--------------------10-----10h12-----------|
|---------10----13----------------1015b17\-|
|------------------9----10------------------|
|-7~-9-10----10-----------------------------|
|-------------------------------------------|
|-------------------------------------------|
|
|
|-----------------------------------------------|
|-----------------13----15----15h17-13----------|
|-----------14-------14-----------------16b18---|
|-10~-12-14----14----------15-------------------|
|-----------------------------------------------|
|-----------------------------------------------|

Gtr I
|----------10h12-15-12h15p12p10----------------15-13p12--------------------|
|-10-12-13----------------------13-12-10h12-------------15-13-12-----------|
|-------------------------------------------12-------------------14-13b14\-|
|--------------------------------------------------------------------------|
|--------------------------------------------------------------------------|
|--------------------------------------------------------------------------|

       T                     PM-----|      
|----------------------------------------------------------|
|---------12pb13r12-10-----------------710b12-10~-9h10-9~~|
|-7b8h13---------------12-10---------8---------------------|
|-----------------------------7-9-10-----------------------|
|----------------------------------------------------------|
|----------------------------------------------------------|
|
|      T                      PM-----|     
|---------------------------------------------------------------------|
|---------15pb17r15-13--------------------------13b15-13--12-13-12b13-|
|-7b8h13---------------16-14-----------10-13b14-----------------------|
|-----------------------------10-12-13--------------------------------|
|---------------------------------------------------------------------|
|---------------------------------------------------------------------|


 PM----------------|    PM---------------------------------------|
|-----------------------------------------------------------------|
|-----------------------------------------------------------------|
|-----------------------------------------------------------------|
|-----------------------------------------------------------------|
|-5-7-8-3-5-7-2-3-5---------------5-7-8-3-5-7-2-3-5-3-2---------2-|
|-------------------[5]--0-0-0-0------------------------5-4-0-4---|
|
| PM----------------|    PM---------------------------------------|
|------------------------------------------------------------------|
|------------------------------------------------------------------|
|------------------------------------------------------------------|
|------------------------------------------------------------------|
|-5-7-8-3-5-7-2-3-5---------------5-7-8-3-5-7-2-3-5-3-2---------2--|
|-------------------[5]--0-0-0-0------------------------5-4-0-4----|


 PM----------------|    PM------------------------------|
|---------------------------------------------------------------4-|
|---------------------------------------------------------3-5h6---|
|-----------------------------------------------------------------|
|---------------------------------------------------2-3-6---------|
|-5-7-8-3-5-7-2-3-5---------------5-7-8-3-5-7-2-3-5---------------|
|-------------------[5]--0-0-0-0----------------------------------|
|
| PM----------------|    PM------------------------|
|-----------------------------------------------------------------7-|
|------------------------------------------------------------9h10---|
|----------------------------------------------------------7--------|
|-------------------------------------------------------------------|
|-5-7-8-3-5-7-2-3-5---------------5-7-8-3-5-7-2-3-5-7-8-11----------|
|-------------------[5]--0-0-0-0------------------------------------|


  PM------------------------------|
|--5-----7-----8-----7-----5-------|
|----5-----5-----5-----5-----5-----|
|------5-----5-----5-----5-----5---|
|--------------------------------7-|
|----------------------------------|
|----------------------------------|
|
| PM--------------------------------------|
|-8------10------12------10------8---------|
|---10------10------10------10-----10------|
|------9-------9-------9-------9------9----|
|---------------------------------------10-|
|------------------------------------------|
|------------------------------------------|


  PM------------------------------|
|--5-----7-----8-----7-----5-------|
|----5-----5-----5-----5-----5-----|
|------5-----5-----5-----5-----5---|
|--------------------------------7-|
|----------------------------------|
|----------------------------------|
|
| PM--------------------------------------|
|-8------10------12------10------8---------|
|---10------10------10------10-----10------|
|------9-------9-------9-------9------9h10-|
|------------------------------------------|
|------------------------------------------|
|------------------------------------------|


 PM----------------------|                                                      
|-5-----7------8-----7-----5------12-------10--------------------------------------|
|---6-----6------6-----6-----6-------10-------10----13-10h13p10----12p10----12b13~~|
|-----5-----5------5-----5-----5/-------10-------10-------------10-------10--------|
|----------------------------------------------------------------------------------|
|----------------------------------------------------------------------------------|
|----------------------------------------------------------------------------------|
|
| PM-------------------------------|                                                            
|-8-------10-------12-------10-------8---------15----------13--------------------------------------|
|---10-------10-------10-------10------10---------13----------13----17-13h17p13----15p13----15b17~~|
|------10-------10-------10-------10------10/--------14----------14-------------14-------14--------|
|--------------------------------------------------------------------------------------------------|
|--------------------------------------------------------------------------------------------------|
|--------------------------------------------------------------------------------------------------|


  PM-----------------------------|
|--5-----7-----8-----7-----5-------|
|----5-----5-----5-----5-----5-----|
|------5-----5-----5-----5-----5---|
|--------------------------------7-|
|----------------------------------|
|----------------------------------|
|
| PM--------------------------------------|
|-8------10------12------10------8---------|
|---10------10------10------10-----10------|
|------9-------9-------9-------9------9----|
|---------------------------------------10-|
|------------------------------------------|
|------------------------------------------|


  PM------------------------------|
|--5-----7-----8-----7-----5-------|
|----5-----5-----5-----5-----5-----|
|------5-----5-----5-----5-----5---|
|--------------------------------7-|
|----------------------------------|
|----------------------------------|
|
| PM--------------------------------------|
|-8------10------12------10------8---------|
|---10------10------10------10-----10------|
|------9-------9-------9-------9------9h10-|
|------------------------------------------|
|------------------------------------------|
|------------------------------------------|



  PM-----------------------|                             PM---|  
|-5-----7------8-----7-----5-------20-13---------------8-----------||
|---6-----6------6-----6-----6---------------------------6---------||
|-----5-----5------5-----5-----5/--------16-17-[14]~\------4-5-----||
|--------------------------------------------------------------[7]~||
|------------------------------------------------------------------||
|------------------------------------------------------------------||
|
| PM-------------------------------|                         ~             ~~
|-8-------10-------12-------10-------8-------20-17----------------8-5---------||
|---10-------10-------10-------10------10-------------------------------------||
|------10-------10-------10-------10------10/------19-21-[17]\--------7-9-[5]/||
|-----------------------------------------------------------------------------||
|-----------------------------------------------------------------------------||
|-----------------------------------------------------------------------------||

Solo Gtr II

|-------------12b13r12p10----10----------------10-12-13p12p10------------------|
|-20b22r-20~\-------------13----13-12-10-12-13----------------13-12p10---------|
|----------------------------------------------------------------------12-10-9-|
|------------------------------------------------------------------------------|
|------------------------------------------------------------------------------|
|------------------------------------------------------------------------------|

  PM-----------|           PM    PM
|--------------------------------------------------------|
|--------------------------------------------------------|
|----------------9h12p10p9----9--------------------------|
|-12-10-9-10-12------------12---1210h12p10p9----9-------|
|---------------------------------------------12---12-11-|
|--------------------------------------------------------|

                                    \1/1\1
|--------------------------------------------|
|--------------------------------15=======\--|
|--------------------------------------------|
|--------------------------------------------|
|--------------------------------------------|
|-13-12-10-12-12b13-12~~-0\--0---------------|


Solo Gtr I

|----16b17r-16~\-----------------------------------------------------------------------|
|--x-------------17b18r-17~\--12b13r-12~\--------------------9h1012h13p12h13h12p10----|
|-x---------------------------------------13b14r-13~p10s9h10------------------------13-|
|--------------------------------------------------------------------------------------|
|--------------------------------------------------------------------------------------|
|--------------------------------------------------------------------------------------|


|----------------------------------------------------------------------------|
|----------------------------------------------------------------------------|
|-10-9-10-12b13rp10p9-10p9h10p9----------------------------------------------|
|-------------------------------12-10-9h10-9h10-10b12~~p9h10p9----9----------|
|--------------------------------------------------------------12---11b12~~\-|
|----------------------------------------------------------------------------|

Gtr II
|--------0-----------------------------------------------------------------------|
|-----------17-15-17-13-17-12--17-15-17-13-17-12--17-15-17-13-17-----------------|
|-1/21\-----------------------------------------------------------16h17p16p14-16-|
!--------------------------------------------------------------------------------|
|--------------------------------------------------------------------------------|
|--------------------------------------------------------------------------------|

                       PM              PM              
|-----------------------------------------------------------------------13h16-13-------16-19b22~~-|
|--------------------------------------------------------15h18-15----15-------------18------------|
|-19-17h19p17p16-------------13h16p13--------16h19----16----------16-------------19---------------|
|----------------19\18----15--------------15-------15---------------------------------------------|
|----------------------17--------------17---------------------------------------------------------|
|-------------------------------------------------------------------------------------------------|


|-------------------------------------------------------------------------------|
|-----/16b18r16p15----15----------------15-17h18----18s17p15--------------------|
|------------------17----17-16-14-16-17----------13----------17-16p14-----------|
|----------------------------------------------------------------------18-15-14-|
|-------------------------------------------------------------------------------|
|-\x----------------------------------------------------------------------------|

                          PM-----------|                        
|--------------------------------------------------------------------------------------16b1716~~\-|
|-----------------------------------------------------------15----------------15-17-18-------------|
|--------------------------------------------------14h16h17----17-16-14-16-17----------------------|
|----14h15-18p15p14----14-----------------14h15h18-------------------------------------------------|
|-17----------------17----17-15p14-15h17-----------------------------------------------------------|
|--------------------------------------------------------------------------------------------------|

Gtr I

|---------------17-19-20-19h20p19p17----17----17----17----17----17----------------|
|------17-18-21----------------------21----18----21----18----21----18s17-15-17-15-|
|---------------------------------------------------------------------------------|
|---------------------------------------------------------------------------------|
|---------------------------------------------------------------------------------|
|-2/------------------------------------------------------------------------------|


|-------------------------------------------------------------------------17-|
|----------------------------------------------------------------17h18h21----|
|-17-16-17-14-16-13h14-16h17p16p14-16-19-17h19p17p16----16h17h19-------------|
|----------------------------------------------------19----------------------|
|----------------------------------------------------------------------------|
|----------------------------------------------------------------------------|


|----------------17h20p17h19-17s20h22p20p19-24-19-20-22-20-19-24--19-20-22-20-19-24-|
|-21p18p17h17h20--------------------------------------------------------------------|
|-----------------------------------------------------------------------------------|
|-----------------------------------------------------------------------------------|
|-----------------------------------------------------------------------------------|
|-----------------------------------------------------------------------------------|


|-19-20-22-20-19-24--19-20-22-20-19-22-22-22b24~~~~~--|
|-----------------------------------------------------|
|-----------------------------------------------------|
|-----------------------------------------------------|
|--------------------------------------------------x\-|
|--------------------------------------------------x\-|

Gtr II
|------------------------------------------------------------------------------------------|
|---------------------------7---------7-9pb10r9p7---7--------------------------------------|
|------4pb6r4~/--9pb11r9b11---9p6---6-------------9---9-8h9p8p6----6-----------------------|
|-----x---------x-----------------7-----------------------------10---10-9h10p9p7---7h9h10/-|
|----x---------------------------------------------------------------------------9---------|
|-17\--------------------------------------------------------------------------------------|


|----------------------------------------------14-17p14p12-----------------|
|-15h16h17p16p15----15-------14-17-14----14h17-------------14----14h17h19--|
|----------------18----16b18----------17----------------------17-----------|
|--------------------------------------------------------------------------|
|--------------------------------------------------------------------------|
|--------------------------------------------------------------------------|


|-14h19p14h17h19p17p14----14-------------------------------------------------------|
|----------------------17----17-16h17p16p14----14----------------14h16h17p16p14----|
|-------------------------------------------17----17-16-14-16-17----------------17-|
|----------------------------------------------------------------------------------|
|----------------------------------------------------------------------------------|
|----------------------------------------------------------------------------------|


|-14------------------14h17p14h16h17p16p14s17h19h21p19p17----17----------------17-22b24~|
|------17p16p14h16h17-------------------------------------21----21-19-17-19-21----------|
|---------------------------------------------------------------------------------------|
|---------------------------------------------------------------------------------------|
|---------------------------------------------------------------------------------------|
|---------------------------------------------------------------------------------------|

Gtr I
|------0-21-19-17-16--19-17-16-14--17-16-14-12--16-14-12-10--14-12-10-9-|
|-----------------------------------------------------------------------|
|-----------------------------------------------------------------------|
|-----------------------------------------------------------------------|
|-----------------------------------------------------------------------|
|-2/--------------------------------------------------------------------|

|-12-10-9-7--10-9-7-5--9-7-5-4--7-5-4-2--5p4p2--4p2p0---2-----------------------|
|----------------------------------------------5-------3---5p3p2-5p3p2---2-------|
|----------------------------------------------------------------------5---5-4p2-|
|--------------------------------------------------------------------------------|
|--------------------------------------------------------------------------------|
|--------------------------------------------------------------------------------|


|-----------------------------------------14-----------------------------------|
|-----------------------------------13-14----17p14----14-----------------------|
|-4p2-----2-------------------14-16----------------17----17-16p14----14-16-14--|
|-----4-2---4p2-4b5~/---14-16-------------------------------------16-----------|
|------------------------------------------------------------------------------|
|------------------------------------------------------------------------------|


|-------------17b21-17-19-17-14-14b16~~~-|
|-17b19r17p15----------------------------|
|----------------------------------------|
|----------------------------------------|
|----------------------------------------|
|----------------------------------------|
|
|------------------------------------------|
|------------------------------------------|
|------------------------------------------|
|------------------------------------------|
|------------------------------------------|
|-------------------------------------/19\-|


 Gtr I
    PM-------|    PM------|
|-----------------------------------------------------------------------|
|-----------------------------------------------------------------------|
|-9------------9------------9~\-----------------------------------------|
|-9------------9------------9~\-----------------------------------------|
|-7------------7------------7~\-----------------------------------------|
|---0-0-0-0-0-----0-0-0-0-0---------------------------------------------|
|
| Gtr II
|---------------------------------4-||--7-4-5-7-5-4--||--7-4-5-7-5-4--||-4s7~-|
|-----------------------------------||---------------||---------------||------|
|-----------------------------------||o-------------o||o-------------o||------|
|-----------------------------------||o-------------o||o-------------o||------|
|-----------------------------------||---------------||---------------||------|
|------------------------------19\--||---------------||---------------||------|


    PM-------|   PM-------|
|-----------------------------------------------------------------------|
|-----------------------------------------------------------------------|
|-9------------9------------9~\-----------------------------------------|
|-9------------9------------9~\-----------------------------------------|
|-7------------7------------7~\-----------------------------------------|
|---0-0-0-0-0-----0-0-0-0-0---------------------------------------------|
|
|
|----------------------------------------||--------------------||
|----------------------------------12-15-||--12-13-15-13-12-17-||
|----------------------------------------||o------------------o||
|----------------------------------------||o------------------o||
|----------------------------------------||--------------------||
|------------------------------/12-------||--------------------||

|--------------------|-----------------------|
|--12-13-15-13-12-17-|-12-13-15-13-12-15s17~~|
|--------------------|-----------------------|
|--------------------|-----------------------|
|--------------------|-----------------------|
|--------------------|-----------------------|


    PM-------|   PM-------|
|-----------------------------------------------------------------------|
|-----------------------------------------------------------------------|
|-9------------9------------9~\-----------------------------------------|
|-9------------9------------9~\-----------------------------------------|
|-7------------7------------7~\-----------------------------------------|
|---0-0-0-0-0-----0-0-0-0-0---------------------------------------------|
|
|
|---------------------------------12-||--16-12-13-16-13-12-17-13-16-17-16-13\12--||-/16b17~-|
|------------------------------------||------------------------------------------||---------|
|------------------------------------||o----------------------------------------o||---------|
|------------------------------------||o----------------------------------------o||---------|
|------------------------------------||------------------------------------------||---------|
|------------------------------/12---||------------------------------------------||---------|

    PM-------|   PM-------|
|-----------------------------------------------------------------------|
|-----------------------------------------------------------------------|
|-9------------9------------9~\-----------------------------------------|
|-9------------9------------9~\-----------------------------------------|
|-7------------7------------7~\-----------------------------------------|
|---0-0-0-0-0-----0-0-0-0-0---------------------------------------------|
|
|                                                                x4                           
|------------------------------------16-19-||-16-17-19-17-16-20--|
|------------------------------------------||--------------------|
|------------------------------------------||o------------------o|
|------------------------------------------||o------------------o|
|------------------------------------------||--------------------|
|-------------------------------/16--------||--------------------|

|-16-17-19-17-16-20--16-17-19-17-16-|-19b20~20~|
|-----------------------------------|----------|
|-----------------------------------|----------|
|-----------------------------------|----------|
|-----------------------------------|----------|
|-----------------------------------|----------|

Gtr II
|-------------------------------------------------------------------------------|
|-17h18p17p15----15----------------15-17-18p17p15----------------15-17-18p17p15-|
|-------------17----17-16-14-16-17----------------17-16-14-16-17----------------|
|-------------------------------------------------------------------------------|
|-------------------------------------------------------------------------------|
|-------------------------------------------------------------------------------|

|----------------------------------------------------------------------------|
|----------------15-17-18p17p15-------------------13h17p13h15h17p15p13----13-|
|-17-16-14-16-17----------------17p16p14s13h14h16----------------------16----|
|----------------------------------------------------------------------------|
|----------------------------------------------------------------------------|
|----------------------------------------------------------------------------|

|-------------------------------------------------------------------------------|
|----------------13----13----------------13h17p13h15h17p15p13s15h17h18p17p15----|
|-16-14-13-14-16----16----16-14-13-14-16-------------------------------------17-|
|-------------------------------------------------------------------------------|
|-------------------------------------------------------------------------------|
|-------------------------------------------------------------------------------|

|--------------------------------------------------------------------------|
|-15----------------15-17-18p17p15-----------------------------------------|
|----17-16-14-16-17----------------17-16p14--------------------------------|
|-------------------------------------------17p14----14h15h18p15p14----14--|
|-------------------------------------------------17----------------17-----|
|--------------------------------------------------------------------------|

|-----------------------------------------------------------------------20b22~~-|
|-------------------------------------------------------------------------------|
|-------------------------------------------------------------------------------|
|-------------------------------------------------------------------------------|
|-17-15h17p15p14----14----------------------2---2/5---7/8---9/11----------------|
|----------------17----17-16-13-12-10-8-7-0---1-----4-----7------10-0-----------|



    T      T       T      T       T     T       T        T         T     T 
|----------------------------------------------------------------------------|
|----------------------------------------------------------------------------|
|-------4(16)h5--------4(16)h5-------4(16)h5-5(17)b7==7(17)r5p4-------------|
|-7(19)~~--------7(19)~~--------7(19)----------------------------7(19)-6(18)~|
|----------------------------------------------------------------------------|
|----------------------------------------------------------------------------|
|
| 
|   T      T       T      T       T     T       T        T         T     T 
|----------------------------------------------------------------------------|
|----------------------------------------------------------------------------|
|-------4(16)h5--------4(16)h5-------4(16)h5-5(17)b7==7(17)r5p4-------------|
|-7(19)----------7(19)----------7(19)----------------------------7(19)-6(18)-|
|----------------------------------------------------------------------------|
|----------------------------------------------------------------------------|


    T
|-------------------8-10-12-10h12p10p8-----------------|
|-----------9-10-12--------------------12-10-9---------|
|-7(19)b9\-------------------------------------10-9b10~|
|------------------------------------------------------|
|------------------------------------------------------|
|------------------------------------------------------|
|
|   T
|--------------------------------------------------------|
|-------------------10-12-13-12h13p12p10-----------------|
|-7(19)b9\--9h10h13----------------------13-10-9---------|
|------------------------------------------------12-9b10~|
|--------------------------------------------------------|
|--------------------------------------------------------|


    T      T       T      T       T     T       T        T         T     T 
|----------------------------------------------------------------------------|
|----------------------------------------------------------------------------|
|-------4(16)h5--------4(16)h5-------4(16)h5-5(17)b7==7(17)r5p4-------------|
|-7(19)~~--------7(19)~~--------7(19)----------------------------7(19)-6(18)~|
|----------------------------------------------------------------------------|
|----------------------------------------------------------------------------|
|
|    T      T       T      T        T     T       T         T           T     T         
|---------------------------------------------------------------------------------|
|---------------------------------------------------------------------------------|
|--------7(19)h9---------7(19)h9--------7(19)h9-9(21)b11==11(21)r9p7--------------|
|-10(22)---------10(22)----------10(22)------------------------------10(22)-9(21)-|
|---------------------------------------------------------------------------------|
|---------------------------------------------------------------------------------|


|--------------------12h13h16-13h16p13p12---------------------|
|-----------12h13h15----------------------15-13-12------------|
|-7(19)b9/------------------------------------------14-13b14~\|
|-------------------------------------------------------------|
|-------------------------------------------------------------|
|-------------------------------------------------------------|
|
|
|-----------------------------------------------------------|
|--------------------13-15-17-15h17p15p13-------------------|
|-11(23)b1313-14h16----------------------16-14-13----------|
|--------------------------------------------------15-14b15~|
|-----------------------------------------------------------|
|-----------------------------------------------------------|


|-----------------------------12h17----15b17~-|
|-----------------15----17-14-------15--------|
|-----------14-------14-----------------------|
|-12~-14h15----15-----------------------------|
|---------------------------------------------|
|---------------------------------------------|
|
|
|----------------------------------------------|
|-----------------18----20----20h22-18-17b18~\-|
|-----------19-------19----21------------------|
|-15~-17h19----19------------------------------|
|----------------------------------------------|
|----------------------------------------------|


|--------------------10-----10h12-----------|
|---------10----13----------------1015b17\-|
|------------------9----10------------------|
|-7~-9-10----10-----------------------------|
|-------------------------------------------|
|-------------------------------------------|
|
|
|-----------------------------------------------|
|-----------------13----15----15h17-13----------|
|-----------14-------14-----------------16b18---|
|-10~-12-14----14----------15-------------------|
|-----------------------------------------------|
|-----------------------------------------------|

Gtr I
|----------10-12-15-12h15p12p10----------------15p13p12--------------------|
|-10-12-13----------------------13-12-10h12-------------15-13-12-----------|
|-------------------------------------------12-------------------14-13b14\-|
|--------------------------------------------------------------------------|
|--------------------------------------------------------------------------|
|--------------------------------------------------------------------------|

       T                     PM---|    
|-----------------------------------------------------------------16b17~-16b17-16b17~\|
|---------12pb13r12-10-----------------7b8~-10b12-10~-9h10-9b10~----------------------|
|-7b8h13/--------------12-10---------8------------------------------------------------|
|----------------------------7-9-10---------------------------------------------------|
|-------------------------------------------------------------------------------------|
|-------------------------------------------------------------------------------------|
|
|      T                     PM-----|                     
|------------------------------------------------------------------------19b20~-19b20-19b20~\|
|---------15pb17r15-13--------------------------13b15-13--12-13-12b13~\----------------------|
|-7b8h13/--------------16-14----------10-13b14~----------------------------------------------|
|----------------------------10-12-13--------------------------------------------------------|
|--------------------------------------------------------------------------------------------|
|--------------------------------------------------------------------------------------------|


 PM----------------|    PM---------------------------------------|
|-----------------------------------------------------------------|
|-----------------------------------------------------------------|
|-----------------------------------------------------------------|
|-----------------------------------------------------------------|
|-5-7-8-3-5-7-2-3-5---------------5-7-8-3-5-7-2-3-5-3-2---------2-|
|-------------------[5]--0-0-0-0------------------------5-4-0-4---|
|
| PM----------------|    PM---------------------------------------|
|------------------------------------------------------------------|
|------------------------------------------------------------------|
|------------------------------------------------------------------|
|------------------------------------------------------------------|
|-5-7-8-3-5-7-2-3-5---------------5-7-8-3-5-7-2-3-5-3-2---------2--|
|-------------------[5]--0-0-0-0------------------------5-4-0-4----|


                                 
|---------------------------------|
|---------------------------------|
|---------------------------------|
|---------------------------------|
|-5-7-8-3-5-7-2-3-5---------------|
|-------------------[5]--0-0-0-0--|
|
|                                  
|--------------------------------|
|--------------------------------|
|--------------------------------|
|--------------------------------|
|-5-7-8-3-5-7-2-3-5--------------|
|-------------------[5]--0-0-0-0-|


  PM------------------------------------|
|-------------------------------------------------10-13-10-12-13-12h13-12b13~\|
|--------------------------------------------10-13----------------------------|
|------------------------------10----9-10-13----------------------------------|
|-------------------------9-12----12------------------------------------------|
|-----------8----7-8-11-7-----------------------------------------------------|
|--5-7-8-10---10--------------------------------------------------------------|
|
|
| PM------------------------------------|
|-------------------------------------------------10-13-10-12-13-12h13-12b13~\|
|--------------------------------------------10-13----------------------------|
|------------------------------10----9-10-13----------------------------------|
|-------------------------9-12----12------------------------------------------|
|-----------8----7-8-11-7-----------------------------------------------------|
|--5-7-8-10---10--------------------------------------------------------------|

 
 PM---------------|    PM---------------------------------------|
|-----------------------------------------------------------------|
|-----------------------------------------------------------------|
|-----------------------------------------------------------------|
|-----------------------------------------------------------------|
|-5-7-8-3-5-7-2-3-5---------------5-7-8-3-5-7-2-3-5-3-2---------2-|
|-------------------[5]--0-0-0-0------------------------5-4-0-4---|
|
| PM----------------|    PM---------------------------------------|
|------------------------------------------------------------------|
|------------------------------------------------------------------|
|------------------------------------------------------------------|
|------------------------------------------------------------------|
|-5-7-8-3-5-7-2-3-5---------------5-7-8-3-5-7-2-3-5-3-2---------2--|
|-------------------[5]--0-0-0-0------------------------5-4-0-4----|

                                
|-------------------------------------------------------------------4-5-7-|
|-------------------------------------------------------------3-5-6-------|
|---------------------------------------------------------2-4-------------|
|---------------------------------------------------2-3-6-----------------|
|-5-7-8-3-5-7-2-3-5---------------5-7-8-3-5-7-2-3-5-----------------------|
|-------------------[5]--0-0-0-0------------------------------------------|
|
|
|-------------------------------------------------------------------4-5-7-|
|-------------------------------------------------------------3-5-6-------|
|---------------------------------------------------------2-4-------------|
|---------------------------------------------------2-3-6-----------------|
|-5-7-8-3-5-7-2-3-5---------------5-7-8-3-5-7-2-3-5-----------------------|
|-------------------[5]--0-0-0-0------------------------------------------|                                  


|-5-8p5---5-5h8p5---|-8h10p8----8-8h10p8----|-10-12p10----10-10h12p10----|
|-------8---------8-|--------10----------10-|----------13-------------13-|
|-------------------|-----------------------|----------------------------|
|-------------------|-----------------------|----------------------------|
|-------------------|-----------------------|----------------------------|
|-------------------|-----------------------|----------------------------|
|
|
|-------------------|-----------------------|---------------------|
|-------------------|-----------------------|---------------------|
|-------------------|-----------------------|---------------------|
|-7-----------------|-7---------------------|-7-------------------|
|-7-----------------|-7---------------------|-5-------------------|
|-5-----------------|-5---------------------|-5-------------------|


|-12h15p12----12-12h15p12----|-15h17p15----15-15h17p15-------|
|----------15-------------15-|----------17-------------17----|
|----------------------------|-------------------------------|
|----------------------------|-------------------------------|
|----------------------------|-------------------------------|
|----------------------------|-------------------------------|
|
|
|----------------------------|-------------------------------|
|----------------------------|-------------------------------|
|----------------------------|-------------------------------|
|-7--------------------------|-7-----------------------------|
|-7--------------------------|-7-----------------------------|
|-5--------------------------|-5-----------------------------|



|-17h20p17----17-17h20p17-|-20h22p20----20-20h22p20----|-22h24p22-20-22-22h24p22-20-|
|----------20-------------|----------22-------------22-|----------------------------|
|-------------------------|----------------------------|----------------------------|
|-------------------------|----------------------------|----------------------------|
|-------------------------|----------------------------|----------------------------|
|-------------------------|----------------------------|----------------------------|
|
|
|-------------------------|----------------------------|----------------------------|
|-------------------------|----------------------------|----------------------------|
|-------------------------|----------------------------|----------------------------|
|-7-----------------------|-7--------------------------|-7--------------------------|
|-7-----------------------|-7--------------------------|-7--------------------------|
|-5-----------------------|-5--------------------------|-5--------------------------|


|-------------------19b20r19b22~~\---------21b24~~\-------24b26~~\-----24pb26b28------|
|-22b24~~\--------x----------------------x---------------x------------x---------------|
|-------------------------------------------------------------------------------------|
|-------------------------------------------------------------------------------------|
|----------------------------------------------------------------------------------x\-|
|-----------x/-----------------------x/--------------x/------------x/--------------x\-|
|
|
|---------------------------------/17b19~~----------19b22~~--------------------|
|------------------------------------------------------------------------------|
|------------------------------------------------------------------------------|
|-7------------------------------------------7---------------------------------|
|-7------------------------------------------7-------------------x\------------|
|-5------------------------------------------5-------------------x\------------|


|--------------------------------------------------------|
|--------------------------------------------------------|
|-8----9\------------------------------------------------|
|-8----9\--7---------------------------------------------|
|-6----7\--7---------------------------------------------|
|----------5-----/24\------------------------------------|
|
|                            \\\              
|----------------------19b22-----------------------------|
|--------------------------------------------------------|
|-8-----9\-----------------------------------------------|
|-8-----9\-7-----------------------------------x-x-------|
|-6-----7\-7-----------------------------------x-x-------|
|----------5-----------------------------------x-x-------|



Tablature Legend
----------------
 h   - hammer-on
 p   - pull-off
 b   - bend
 pb  - pre-bend
 r   - bend release (if no number after the r, then release immediately)
 /\  - slide into or out of (from/to "nowhere")
 s   - legato slide
 S   - shift slide
 - natural harmonic
[n]  - artificial harmonic
n(n) - tapped harmonic
 ~   - vibrato
 tr  - trill
 T   - tap
 TP  - trem. picking
 PM  - palm muting
\n/  - tremolo bar dip; n = amount to dip
 \n  - tremolo bar down
 n/  - tremolo bar up
/n\  - tremolo bar inverted dip
 =   - hold bend; also acts as connecting device for hammers/pulls
 <> - volume swell (louder/softer)
 x   - on rhythm slash represents muted slash
 o   - on rhythm slash represents single note slash





Comments


Popular Racer X tabs & chords
Fire Of Rock Bass Tabs
Into The Night Bass Tabs
Motorman Bass Tabs
Scarified Bass Tabs
Technical Difficulties Bass Tabs
Bucket Of Rock Intro Tabs
Scarified Tabs
Street Lethal Tabs
Technical Difficulties Tabs
Y R O Tabs


Song lyrics



↑ Back to top | Tablatures and chords are parodies/interpretations of the original songs. You may use it for private study, scholarship, research or language learning purposes only
© 2014 AZChords.com Contact us | Privacy policy | DMCA | Add/correct tabs | Request tabs | Top 50 tabs