» » »

Racer X, She Wants Control Bass tabs (ver.1)

Artists:  A B C D E F G H I J K L M N O P Q R S T U V W X Y Z # 

She Wants Control Bass tabs (ver.1)

Racer X Tabs
Rating:
0/5 (0 votes)
Hard to play? Try these video lessons and learn fast.
                Racer X - She Wants Control

Tuning, down 1/2 step
F#
C#
G#
D#

Intro - repeat once
F#: -4---------------------------------
C#: ---6-5-4-----------------------4--2
G#: ---------7-4-------2---2--4--2-----
D#: -------------2-3-4---4-------------

F#: -4----------------------------------------
C#: ---6-5-4------------------6--7--4--6--2--4
G#: ---------7-4-------2---2------------------
D#: -------------2-3-4---4--------------------

F#: -4---------------------------------
C#: ---6-5-4-----------------------4--2
G#: ---------7-4-------2---2--4--2-----
D#: -------------2-3-4---4-------------     

F#: -4--------------------------------------
C#: ---6-5-4-----------------7--6--4--2--1--
G#: ---------7-4-------2---2---------------2    
D#: -------------2-3-4---4------------------

Pre-verse
F#: ------------
C#: ------------
G#: -4--2---4--4
D#: ------4-----

Verse
F#: ----------------------------
C#: -2---4---2---1--------------
G#: -----------------4--2---4--4
D#: ----------------------4-----

F#: --------------------------------------------------------
C#: --------------------------------------------------------
G#: -----0-0-0-0--0-0-0-0--2-2-2-2--2-2-2-2-----4--2----4--4
D#: -2------------------------------------------------4-----

F#: ---------------------
C#: ---------------------
G#: -----0-0-0-0--2-2-2-2
D#: -2-------------------

Pre-chorus
F#: -------------------------6-4-6-7-6-4------------
C#: -------------6-4-6-7-6-4-------------7-6-4------
G#: -6-4-6-7-6-4-------------------------------7-5-4
D#: ------------------------------------------------

Chorus
F#: ----------------------------------------------
C#: ----------------------------------------------
G#: -4----------0-0-0-0--0-0-0-0--2-2-2-2--2-2-2-2
D#: ----0--2--------------------------------------

F#: ----------------------------
C#: -------2--------------------
G#: -4--2-------0-0-0-0--2-2-2-2
D#: ---------0------------------

Chorus outro
F#: ------------------------------------
C#: -------------------------7-6-4-2-1--
G#: -4-4-4-4-4-4-4-4-4-4-4-4-----------2
D#: ------------------------------------

Pre-verse
F#: ------------
C#: ------------
G#: -4--2---4--4
D#: ------4-----

Verse
F#: ----------------------------
C#: -2---4---2---1--------------
G#: -----------------4--2---4--4
D#: ----------------------4-----

F#: --------------------------------------------------------
C#: --------------------------------------------------------
G#: -----0-0-0-0--0-0-0-0--2-2-2-2--2-2-2-2-----4--2----4--4
D#: -2------------------------------------------------4-----

F#: ---------------------
C#: ---------------------
G#: -----0-0-0-0--2-2-2-2
D#: -2-------------------

Pre-chorus
F#: -------------------------6-4-6-7-6-4------------
C#: -------------6-4-6-7-6-4-------------7-6-4------
G#: -6-4-6-7-6-4-------------------------------7-5-4
D#: ------------------------------------------------

Chorus
F#: ----------------------------------------------
C#: ----------------------------------------------
G#: -4----------0-0-0-0--0-0-0-0--2-2-2-2--2-2-2-2
D#: ----0--2--------------------------------------

F#: ----------------------------------------------
C#: -------2--------------------------------------
G#: -4--2-------0-0-0-0--0-0-0-0--2-2-2-2--2-2-2-2
D#: ---------0------------------------------------

F#: ----------------------------------------------
C#: ----------------------------------------------
G#: -4----------0-0-0-0--0-0-0-0--2-2-2-2--2-2-2-2
D#: ----0--2--------------------------------------

F#: ----------------------------
C#: -------2--------------------
G#: -4--2-------0-0-0-0--2-2-2-2
D#: ---------0------------------

Bridge
F#: -------------------------6----------------------
C#: -6---------------6---------9-7-6---7-6---9-7-6--
G#: ---9-7-6---9-7-6---9-7-6---------6-----9-------9
D#: ---------9--------------------------------------

F#: ------------------------
C#: -6---------------6------
G#: ---9-7-6---9-7-6---9-7-6
D#: ---------9--------------

F#: --------------------
C#: -6-------6----------
G#: ---6-7-9---9-7-6----
D#: -----------------9-7

F#: --------------------------9-8-6-----6-----8-6----
C#: -6---------------6--------------9-7---9-7-----9-7
G#: ---9-7-6---9-7-6---9-7-6-------------------------
D#: ---------9---------------------------------------

Pre-solo
F#: -------------------------------------------------
C#: -------------------------------------------------
G#: -0-0-0-0-0-0-0-0-0-0-0-0-2-2-2-2-2-2-2-2-2-2-2-2-
D#: -------------------------------------------------

Solo
F#: -----------------------------------------
C#: -------------2---4---2---1---------------
G#: 4--2---4--4-----------------4--2---4--4--
D#: -----4---------------------------4-------

F#: --------------------------------------------------------
C#: --------------------------------------------------------
G#: -----0-0-0-0--0-0-0-0--2-2-2-2--2-2-2-2-----4--2----4--4
D#: -2------------------------------------------------4-----

F#: ---------------------
C#: ---------------------
G#: -----0-0-0-0--2-2-2-2
D#: -2-------------------

Pre-chorus
F#: -------------------------6-4-6-7-6-4------------
C#: -------------6-4-6-7-6-4-------------7-6-4------
G#: -6-4-6-7-6-4-------------------------------7-5-4
D#: ------------------------------------------------

Chorus - repeat once
F#: ----------------------------------------------
C#: ----------------------------------------------
G#: -4----------0-0-0-0--0-0-0-0--2-2-2-2--2-2-2-2
D#: ----0--2--------------------------------------

F#: ----------------------------------------------
C#: -------2--------------------------------------
G#: -4--2-------0-0-0-0--0-0-0-0--2-2-2-2--2-2-2-2
D#: ---------0------------------------------------

F#: ----------------------------------------------
C#: ----------------------------------------------
G#: -4----------0-0-0-0--0-0-0-0--2-2-2-2--2-2-2-2
D#: ----0--2--------------------------------------

F#: ----------------------------
C#: -------2--------------------
G#: -4--2-------0-0-0-0--2-2-2-2
D#: ---------0------------------

Outro
F#: -4---------------------------------
C#: ---6-5-4-----------------------4--2
G#: ---------7-4-------2---2--4--2-----
D#: -------------2-3-4---4-------------

F#: -4---------------------------------------
C#: ---6-5-4------------------6--7--4--6--2-4
G#: ---------7-4-------2---2-----------------
D#: -------------2-3-4---4-------------------

F#: -4---------------------------------
C#: ---6-5-4-----------------------4--2
G#: ---------7-4-------2---2--4--2-----
D#: -------------2-3-4---4-------------     

F#: -4-----------------------------------------
C#: ---6-5-4-----------------7--6--4--2--1-----
G#: ---------7-4-------2---2---------------2--4    
D#: -------------2-3-4---4---------------------


Well, thats it.  If I missed anything be sure to
correct me.  I may have mistaken some parts on the
Bridge, but shouldnt we all?  Its a hard bridge! 
Well, thanks for your time and cooperation, this is a
very fun song to play.  Dont make any exuses that
"You're too young to play it." because I'm only 15 and
I tabbed and played this myself. Have fun, and keep practicing!
            

comments powered by Disqus
↑ Back to top | Racer X Bass for She Wants Control. Lyrics for acoustic guitar and electric guitar. Tablatures and chords are parodies/interpretations of the original songs. You may use it for private study, scholarship, research or language learning purposes only