>
 >
Scit Scat Wah

Scit Scat Wah Guitar Tabs

Racer X - Scit Scat Wah chords, tabs, tablatures, lyrics

Guitar lessons | Add/correct | Request | Top 50 tabs Artists:  A B C D E F G H I J K L M N O P Q R S T U V W X Y Z 0-9

Scit Scat Wah Guitar Tabs – Racer X

CD, Sheet music, Poster

Do you like Scit Scat Wah? Share with your friends now
Tabs
Hope you like it Paul Gilbert song !!
Standard tunning ( EADGBE )
(/Distortion...)


-17-15-13----------------13-15-17-15-13----------15-13-12---------------
----------------------------------------17-15-13------------------------
----------17-15-14-15-17----------------------------------15-14-12-14---



----12-13-15-13-12----------13-12-10----------------10-12-13-12-10------
-------------------15-13-11----------------------------------------13---
-15----------------------------------14-12-10-12-14---------------------



-------12-10-9---------------9-10-12-10-9----------10-8-10---12-10-12---
-11-10------------------------------------10-8-6-6---------8------------
---------------12-10-9-10-12--------------------------------------------

                                                                                                                                           Paul's Fill

----13-12-13----15-13-15-17-15-13-------15-13----17--20-18-17-----------
-10----------11-------------------15-17-------15--------------20-18-17--



-20-18-17---------------------------------------------------------------
----------19-17-15-19-17-15---------------------------------------------
----------------------------19-17-15-19-17-15-20-19-17-19-17-15---------



---------------------------------------------------15-13-12-------13-12-
------------------------------------------------------------13-15-------
------------------------------------------10-12-14----------------------
---------------------------------------10-------------------------------
-19-17-15--------------8-12-10-8-10-12----------------------------------
----------19-17-15-14---------------------------------------------------



----17-15-13-------15-13----18-17-15-------17-15----22------------------
-13----------15-17-------15----------17-18-------17---------------------
-------------------------------------------------------10-13-12-10-12-13



-------------20-17-------17-13-------18-15-------15-12-------18-15-12---
-------------------18----------15----------17----------14---------------
-------12-15----------17----------14----------15----------12------------
-11-14------------------------------------------------------------------



----------15-12-9---------18-15-12----------15-12-9---------------------
-18-15-12---------15-12-9----------18-15-12---------15-12-9-------------
------------------------------------------------------------8-12-10-8-10



-------10-12-14-------------------------7-5-----5-----------------------
----10----------7-5-------5-----8-7-5-------8-7---8-7-5-8-7-5-----------
-12-----------------8-5-7---8-5-------8-----------------------8-7-------



-----------------------------------------------10-11-10-------14-15-----
---------------------------------------9-10-12----------12-10-----------
------------------------------11-12-11----------------------------------
------------10----------12-13-------------------------------------------
-9-10-12-13----13-12-10-------------------------------------------------




              

-13-12------------------------------------------------------------------
--------10-8-7------8-7----12-10-8-------10-8----13-12-10-------12-10---
---------------8-10-----10---------10-12------12----------12-13-------13




-------------------------------------------------15-13-------18-15------
-------------------------------------15-13-------------15-13-------18-15
-------------------------15-12-------------15-12------------------------
-15-13-12-------13-12----------15-12------------------------------------
----------13-15-------15------------------------------------------------




-20-18-20-17----13------------------B-----------------------------------
-------------18-------------------18-(20)-------------------------------
-------------------17-15-14---------------------------------------------
----------------------------17-15---------------------------------------
-----------------------------------------------------------10-12-13-10--
------------------------------------------8-10-11-10-11-13--------------




-------------------------------------------12----------------14-15-17---
-------10----------------12-13-15-12-13-15----15-13-12-13-15------------
-12-13----13-12-10-12-13------------------------------------------------




-------15-17-18-20-17-------------------------------18------------------
-16-18----------------18-------------------16------------B-------B----R-
-------------------------17-------------15----14-15----12-(14)-12-(14)--
----------------------------19-------17---------------------------------
-------------------------------20-15------------------------------------




------------------------------------------10-6--------------------------
---------B-------B-----10-13-10----------------8--------------S--S------
-12-10-12-(14)-12-(14)----------10-9-------------7------------/7-/17-15-
---------------------------------------------------8--------------------
-------------------------------------12-8------------10-5---------------
----------------------------------------------------------6-3-----------



-------------------------------------10-13-15-13-10----------------10-13
------------------------s-----------------------------------------------
-14-15-14-12-14-12-10-8-/10-10-12-15----------------15-12-10-12-15------


      T                                     T /s  T \s T
-15-(18)-15-13-10----------------10-13-15-(18)--(20)--(18)-15-13-10-----
------------------15-12-10-12-15----------------------------------------




-17-15-13-------15-13----18-15-13-------15-13----17-15-13-------15-13---
----------15-16-------15----------15-16-------15----------15-16-------15



   B           Back to beginning...then later, Paul's solo and the rest.
-20-(22)----------------------------------------------------------------





Comments


Popular Racer X tabs & chords
Into The Night Bass Tabs
Scarified Bass Tabs
Technical Difficulties Bass Tabs
Fire Of Rock Drum Tabs
B R O Tabs
Bolt In My Heart Tabs
Street Lethal Tabs
Street Lethal 1 Tabs
Technical Difficulties Tabs
Y R O Tabs


Song lyrics



↑ Back to top | Tablatures and chords are parodies/interpretations of the original songs. You may use it for private study, scholarship, research or language learning purposes only
© 2014 AZChords.com Contact us | Privacy policy | DMCA | Add/correct tabs | Request tabs | Top 50 tabs