>
 >
Scarified

Scarified Bass Tabs

Racer X - Scarified chords, tabs, tablatures, lyrics

Guitar lessons | Add/correct | Request | Top 50 tabs Artists:  A B C D E F G H I J K L M N O P Q R S T U V W X Y Z 0-9

Scarified Bass Tabs – Racer X

CD, Sheet music, Poster

Do you like Scarified? Share with your friends now
Bass TabsTabsTabs v2Tabs v3


Band: Racer X




Tuning: Tuned down 1/2 step


Legend:
     ~ = hold
     -x- = scratch (mute note)
     \ / = slide
     pb = pre-bend (half-step bend)
     b  = full bend
     h  = hammer-on
     p  = pull-off
     *  = natural harmonic
     T  = tap
     |o o| = repeat open/close
     |o o|


  John Alderete (Bass Guitar)

Intro:
F#|-------5*--------||--------------------------------------------|
C#|-------5*--------||o-------------------------------------------|
G#|-----------------||o---------------------------4---------------|
D#|-----------------||--2-2-2-2-2-2-2-2-2-2-4-5-7----2------------|
    Intro Drum Fill

F#|-----------------------6~--------------------------------------|
C#|----------------6-7-9------------------------------------------|
G#|----------5-7-9-------------------------------------------4----|
D#|-2--5-7-9-----------------------2-2-2-2-2-2-2-2-2-2-4-5-7----2-|

F#|----7-6-4------------------------------------------------------|
C#|----------7-6-4------------------------------------------------|
G#|----------------7-5-4-------------------------------------4----|
D#|-2--------------------7-5-4-----2-2-2-2-2-2-2-2-2-2-4-5-7----2-|

F#|-----------------------6~--------------------------------------|
C#|----------------6-7-9------------------------------------------|
G#|----------5-7-9-------------------------------------------4----|
D#|-2--5-7-9-----------------------2-2-2-2-2-2-2-2-2-2-4-5-7----2-|

F#|--------------------7-9~-----||
C#|------------7--9-11---------o||Go to the repeat sign (2x)
G#|-----7-9-11-----------------o||
D#|-2---------------------------||
  

1st part
F#|--------------------------------------------------|
C#|--------------------------------------------------|
G#|-5-5-5-5-5-5-5-5-6-6-6-6-6-6-6-6-7-7-7-7-7-7-7-7--|
D#|--------------------------------------------------|

F#|------------------|
C#|------------------|
G#|-8-8-8-8-8-8-8-8--|
D#|------------------|


1st Bass solo
F#|----------------------11-14-11---------------11-14-------------|
C#|-14p11-------------12----------12---------12-------------------|
G#|-------12-------12----------------14-9-14----------------------|
D#|----------14-14------------------------------------------------|

F#|-18-16-------14-13-----------|
C#|-------18-16-------16-14-16~-|
G#|-----------------------------|
D#|-----------------------------|


2nd part
F#|----------------------------------|
C#|----------------------------------|
G#|----------------------------------|
D#|-2-2-2-2-2-2-2-2-5-5-5-5-5-5-5-5--|

F#|--------------------------------------------------|
C#|----------------------------------2-2-2-2-2-2-2-2-|
G#|-2-2-2-2-2-2-2-2-5-5-5-5-5-5-5-5------------------|
D#|--------------------------------------------------|

F#|---------------------------------------------------------------|
C#|---------------------------------------------------------------|
G#|----------------------------------4-4-4-4-4-4-4-4-4-4-4--------|
D#|-4-4-4-4-4-4-4-4-5-5-5-5-5-5-5-5-------------------------------|

F#|---------------------------------------------------------------|
C#|------------------4-4-4-4-4-4-4-4-6-6-6-6-6-6-6-6--------------|
G#|-5-5-5-5-5-5-5-5-----------------------------------------------|
D#|---------------------------------------------------------------|

F#|-4-4-4-4-4-4-4-4-6-6-6-6-6-6-6-6--|
C#|----------------------------------|
G#|----------------------------------|
D#|----------------------------------|

F#||---6-6-6-6-6-6-6-6-6-6-6-6-6-6-6-6---||
C#||o-----------------------------------o||Go to repeat sign (2x)
G#||o-----------------------------------o||
D#||-------------------------------------||

F#|-6-6-6-6-6-6-6-6--11----11--------|
C#|---------------------11-----------|
G#|----------------------------------|
D#|----------------------------------|


3rd part (Rythym and Bass guitar play this part)

    T        T        T        T        T        T
F#|-------------------19p16p18-19p18p16---------------------------|
C#|-19p16p18-19p18p16-------------------18p14p16-18p16p14---------|
G#|---------------------------------------------------------------|
D#|---------------------------------------------------------------|
    T        T                 T        T        T
F#|-18p14p16-18p16p14-------------------16p13p14-16p14p13---------|
C#|-------------------16p13p14-16p14p13---------------------------|
G#|---------------------------------------------------------------|
D#|---------------------------------------------------------------|
    T        T        T
F#|-16p14p13-18p16p14-18--16b--------|
C#|----------------------------------|
G#|----------------------------------|
D#|----------------------------------|


4th part
F#|----------------------------------------------------------6~---|
C#|---------------------------------------------------6-7-9-------|
G#|---------------------------4-----------------5-7-9-------------|
D#|-2-2-2-2-2-2-2-2-2-2-4-5-7----2-----2--5-7-9-------------------|

F#|---------------------------------------7-6-4-------------------|
C#|---------------------------------------------7-6-4-------------|
G#|---------------------------4-----------------------7-5-4-------|
D#|-2-2-2-2-2-2-2-2-2-2-4-5-7----2-----2--------------------7-5-4-|

F#|---------------------------------------------------------6~----|
C#|--------------------------------------------------6-7-9--------|
G#|---------------------------4----------------5-7-9--------------|
D#|-2-2-2-2-2-2-2-2-2-2-4-5-7----2----2--5-7-9--------------------|

F#|------------------------------------------------------7-9~-----|
C#|----------------------------------------------7--9-11----------|
G#|---------------------------4-----------7-9-11------------------|
D#|-2-2-2-2-2-2-2-2-2-2-4-5-7----2----2---------------------------|


5th part
F#|--------------------------------------------------|
C#|--------------------------------------------------|
G#|-5-5-5-5-5-5-5-5-6-6-6-6-6-6-6-6-7-7-7-7-7-7-7-7--|
D#|--------------------------------------------------|

F#|------------------|
C#|------------------|
G#|-8-8-8-8-8-8-8-8--|
D#|------------------|


2nd Bass solo
F#|-------------------11-13-14-13-11-------11---------------------|
C#|----------11-12-14----------------14-12----14-12-11------------|
G#|-12-11-14-------------------------------------------14---------|
D#|---------------------------------------------------------------|

F#|--------------------------------------------------|
C#|-----11-----------11-12-14-12-11------------------|
G#|-12------14--12------------------14-12-11---------|
D#|------------------------------------------14------|


6th part
F#|----------------------------------|
C#|----------------------------------|
G#|----------------------------------|
D#|-2-2-2-2-2-2-2-2-5-5-5-5-5-5-5-5--|

F#|--------------------------------------------------|
C#|----------------------------------2-2-2-2-2-2-2-2-|
G#|-2-2-2-2-2-2-2-2-5-5-5-5-5-5-5-5------------------|
D#|--------------------------------------------------|
                                                      
F#|---------------------------------------------------------------|
C#|---------------------------------------------------------------|
G#|----------------------------------4-4-4-4-4-4-4-4--------------|
D#|-4-4-4-4-4-4-4-4-5-5-5-5-5-5-5-5-------------------------------|
                                                      
F#|---------------------------------------------------------------|
C#|------------------4-4-4-4-4-4-4-4-6-6-6-6-6-6-6-6--------------|
G#|-5-5-5-5-5-5-5-5-----------------------------------------------|
D#|---------------------------------------------------------------|
                                                      
F#|-4-4-4-4-4-4-4-4-6-6-6-6-6-6-6-6-6-6-6-6-6-6-6-6---------------|
C#|---------------------------------------------------------------|
G#|---------------------------------------------------------------|
D#|---------------------------------------------------------------|
                                                      
F#|-6-6-6-6-6-6-6-6-6-6-6-6-6-6-6-6--|                
C#|----------------------------------|                 
G#|----------------------------------|                
D#|----------------------------------|                
                                                      
F#|-8-8-8-8-8-8-8-8-8-8-8-8-8-8-8-8--|                
C#|----------------------------------|                
G#|----------------------------------|                
D#|----------------------------------|                
                                                         
F#|-8-8-8-8-8-8-8-8-8-8-8-8-8-8-8-8------------------|
C#|--------------------------------------------------|
G#|------------------------------------6--7----------|
D#|------------------------------------------3--4----|
                                                      

7th part (Paul Gilbert guitar solo)                                
F#|-----9---9~---------------------------------------|
C#|--------------------------------------------------|
G#|-7-7---7------7~----7-7-7-7-7--7~---7-7-7---------|
D#|------------------------------------------2-------|

F#||---------------------||
C#||o-------------------o||Go to the repeat sign (4x)
G#||o-------------------o||
D#||---4-4-4-4-4-4-4-4---||

(Bruce Bouillet guitar solo)
F#|-----9---9~---------------------------------------|
C#|--------------------------------------------------|
G#|-7-7---7------7~----7-7-7-7-6--7~---7-7-7---------|
D#|------------------------------------------3-------|

F#||---------------------||
C#||o-------------------o||Go to the repeat sign (4x)
G#||o-------------------o||
D#||---4-4-4-4-4-4-4-4---||


8th part
F#|---------------------------------------------------------------|
C#|----------------------------------------------(guitar fill in)-|
G#|----------2----7--77-77---7--77-77---7--77-77------------------|
D#|-2--4--6-------------------------------------------------------|


9th part
F#|----------------------------------------------------------6~---|
C#|---------------------------------------------------6-7-9-------|
G#|---------------------------4-----------------5-7-9-------------|
D#|-2-2-2-2-2-2-2-2-2-2-4-5-7----2-----2--5-7-9-------------------|

F#|---------------------------------------7-6-4-------------------|
C#|---------------------------------------------7-6-4-------------|
G#|---------------------------4-----------------------7-5-4-------|
D#|-2-2-2-2-2-2-2-2-2-2-4-5-7----2-----2--------------------7-5-4-|


10th part
F#||-------------------------------------||
C#||o--7-7-7-7-7-7-7-7-7-7-7-7-7-7-7-7--o||Repeat this 2x
G#||o-----------------------------------o||
D#||-------------------------------------||

F#||-------------------------------------||
C#||o--5-5-5-5-5-5-5-5-5-5-5-5-5-5-5-5--o||Repeat this 2x
G#||o-----------------------------------o||
D#||-------------------------------------||

F#||-------------------------------------||
C#||o--6-6-6-6-6-6-6-6-6-6-6-6-6-6-6-6--o||Repeat this 2x
G#||o-----------------------------------o||
D#||-------------------------------------||

F#|----------------------------------|
c#|----------------------------------|
G#|-8-8-8-8-8-8-8-8-8-8-8-8-8-8-8-8--|
D#|----------------------------------|

F#|----------------------------------|
C#|----------------------------------|
G#|-8-8-8-8-8-8-8-8-8-8-8-8-8-8-9-9--|
D#|----------------------------------|

F#|--------------------||
C#|--------------------||
G#|-9--11--12----------||
D#|------------12---9~-||





Comments


Popular Racer X tabs & chords
Fire Of Rock Bass Tabs
Technical Difficulties Bass Tabs
Fire Of Rock Drum Tabs
B R O Tabs
Colorado Bulldog Tabs
Executioners Song Tabs
Gone Too Far Tabs
Hammer Away Tabs
Street Lethal Tabs
Technical Difficulties 3 Tabs


Song lyrics



↑ Back to top | Tablatures and chords are parodies/interpretations of the original songs. You may use it for private study, scholarship, research or language learning purposes only
© 2014 AZChords.com Contact us | Privacy policy | DMCA | Add/correct tabs | Request tabs | Top 50 tabs