» » »

Racer X, Motorman Bass tabs (ver.1)

Artists:  A B C D E F G H I J K L M N O P Q R S T U V W X Y Z # 

Motorman Bass tabs (ver.1)

Racer X Tabs
 Rating:
4/5 (4 votes)
Motorman lessons Tabs too difficult? Try these video lessons and learn fast
                Notes: tuned down 1/2 step and played fast ;)


Intro Part 1
------------------------------------------------
------------------------------------------------
1--0--------5------------------------------3--5-
------1--0----7--8--5--5--7--8--5--3--6--5------

Intro Part 2 (2x)
------------------------------------------12----14-12
---------------------------12----14-15-14----15------
---------12----13-12-15-13----15---------------------
10(r)-------15---------------------------------------

--------------------
--------------------
--------------------
-7(r)---5(r)---3(r)-

Verse
---------
---------
2---7-5-4
---------

-----------------------
-----------------------
-------------2(r)------
2(r)---3--5--------2(r)

Pre-chorus (x2)
-------------
-------------
-------------
2--3--5--6--7

Pre-chorus Fill in
------------------
4-5---4-----------
----7---7-5-4----4
--------------7-5-

Chorus
----------------------------------------------
----------------------------------------------
4(r)--6--7-----4(r)---4(r)--6--7--------------
-----------5--------4------------5--0-5-5--0-5

Verse
---------
---------
2---7-5-4
---------

-----------------------
-----------------------
-------------2(r)------
2(r)---3--5--------2(r)

Pre-chorus
-------------
-------------
-------------
2--3--5--6--7

(tapping)
6-4-6-7-6-4--7-6-7-9-7-6--9-7-9-11-9-7-
---------------------------------------
---------------------------------------
---------------------------------------

(tapping)
11-9-11-12-11--12-11-12-14-12-11--14-12-14-16-14-12-16
------------------------------------------------------
------------------------------------------------------
------------------------------------------------------

-------------
-------------
-------------
2--3--5--6--7

Pre-chorus Fill in
------------------
4-5---4-----------
----7---7-5-4----4
--------------7-5-

Chorus (x2)
----------------------------------------------
----------------------------------------------
4(r)--6--7-----4(r)---4(r)--6--7--------------
-----------5--------4------------5--0-5-5--0-5

Ante-solo
------------------------
-----6-4----------------
---------7-6-4----------
2--------------7-6-5-4-7

Guitar Solo (x2)
--------------------------
--------------------------
5(r)----------------------
------7(r)----5(r)----3(r)

Bridge
---------------------------------------------
----------------------------0-----------0----
----------3-------------3-----3-2-0---------0
0---2--3------0---2--3--------------3-2---3--

-----------------------------------
-----------------------------------
-----------3(r)--5(r)--2(r)--6(r)--
0---2--3---------------------------

Chorus (x2)
----------------------------------------------
----------------------------------------------
4(r)--6--7-----4(r)---4(r)--6--7--------------
-----------5--------4------------5--0-5-5--0-5

Outro
------------------------
------------------------
---------------4---4-4-4
5--0-5-5--0-5-----------

(r) = repeat note until note changes

Well thats the song.  The (tapping) above the second
Pre-Chorus is a technique John Alderete does in the
song.  I learned it pretty quick but its pretty hard
to explain if you dont know what it means...  I
scanned this tab for errors over and over and it
doesnt appear to have any, but if you find any sneakin
with it, speed and precision is the key in this song.
            
Submit corrections

comments powered by Disqus
↑ Back to top | Racer X Bass for Motorman. Lyrics for acoustic guitar and electric guitar. Tablatures and chords are parodies/interpretations of the original songs. You may use it for private study, scholarship, research or language learning purposes only