>
 >
Miss Mistreater

Miss Mistreater Guitar Tabs

Racer X - Miss Mistreater chords, tabs, tablatures, lyrics

Guitar lessons | Add/correct | Request | Top 50 tabs Artists:  A B C D E F G H I J K L M N O P Q R S T U V W X Y Z 0-9

Miss Mistreater Guitar Tabs – Racer X

CD, Sheet music, Poster

Do you like Miss Mistreater? Share with your friends now
Tabs
|--------------------------------------------------|

INTRO:
  
          Triplets with palm mute / pinch harm.  T = triplet
     T  T  T  T  T  T  T  T  T        
E|-------------------------------------------------|---------|
B|-------------------------------------------------|---------|
G|o-----------------------------------------------o|---------|
D|o--6--6--6--6--6--6--6--6--6--6--6--6--6-6-6-6--o|--6 /-0--|
A|-------------------------------------------------|---------|
E|-------------------------------------------------|---------|
pm   *  .  .  *  .  .  *  .  .  *  *  *  * . . . 


E|----------------------------------------|
B|----------------------------------------|
G|----------------------------------------|
D|-4/6-6-6-6-6-6-6--4/6-6-6--4/6-6-6-6-6-6|
A|-4/6-6-6-6-6-6-6--4/6-6-6--4/6-6-6-6-6-6|
E|-2/4-4-4-4-4-4-4--2/4-4-4--2/4-4-4-4-4-4|
pm   . . . . . . .    . . .    . . . . . .


E|--------------------------------|-------------|
B|--------------------------------|-------------|
G|--------------------------------|-----------4-|
D|------------------------4--x--4-|-4--x--4---4-|
A|-4-2--------2-----------4--x--4-|-4--x--4---2-|
E|------4--2-----4--2--0--2--x--2-|-2--x--2-----|
pm . .  .  .  .  .  .  . 


E|------------------------|
B|------------------------|
G|-4--6--9--11--13--\\----|
D|-4--6--9--11--13--\\----|
A|-2--4--7--9---11--\\----|
E|------------------------|
                  "Oh you gave yourself so easily......"

VERSE:

E|------------------------------------------|-----------|
B|------------------------------------------|-----------|
G|----------------------------9-8-----------|-8---------|
D|----------------4-----------9-8-9-11-\----|-8--9--6-\-|
A|----6--4-----------7--6--4--7-6-9-11-\----|-6--9--6-\-|
E|-4--------7--4------------------7-9--\----|----7--4-\-|
pm .  .  .  .  .  .  .  .  .
                                    
                                    "That's ok....."
(I'm not TOTALLY SURE THAT THIS PART IS RIGHT.  
          It sounds CLOSE, but I'm pretty sure it's not right.

BRIDGE:

E|-------------------------------------------------|
B|-------------------------------------------------|
G|-----------------8-8-8-8-8-8-8-8-9-9-9-9-9-9-9-9-|
D|-4-4-4-4-4-4-4-4-8-8-8-8-8-8-8-8-9-9-9-9-9-9-9-9-|
A|-4-4-4-4-4-4-4-4-6-6-6-6-6-6-6-6-7-7-7-7-7-7-7-7-|
E|-2-2-2-2-2-2-2-2---------------------------------|
pm   . . . . . . .   . . . . . . .   . . . . . . .
 "But you keep on......"


E|-----------------------------------------------------|
B|-----------------------------------------------------|
G|-9x9x8 8-8-6--6--6--6--8--8--8--8--9--9--9--9--11-\--|
D|-9x9x8-8-8-6--6--6--6--8--8--8--8--9--9--9--9--11-\--|
A|-7x7x6-6-6-4--4--4--4--6--6--6--6--7--7--7--7--9--\--|
E|-----------------------------------------------------|
          "...Your touch, third degree..."

CHORUS:
					   HARM.
E|-----------------------------------|------------|
B|-----------------------------------|------------|
G|o---------------------------------o|--------*4*-|
D|o---------------------------------o|-4-x-4------|
A|------------------4-2-----2--------|-4-x-4------|
E|--2h4-4-4-4-4-4-4-----4-2---4-2-0--|-2-x-2------|
pm    . . . . . . . . . . . . . . .
"Miss Mistreater...."


RETURN TO VERSE:
E|-----------------------|
B|-----------------------|
G|-6--4------------------|
D|-6--4--4--6--\---------|
A|-4--2--4--6--\---------|
E|-------2--4--\---------|


I'll give you credit!!!!!! 





Comments


Popular Racer X tabs & chords
Frenzy Bass Tabs
Scarified Bass Tabs
Fire Of Rock Drum Tabs
Bolt In My Heart Tabs
Executioners Song Tabs
Scarified 1 Tabs
Street Lethal Tabs
Technical Difficulties 1 Tabs
Technical Difficulties 3 Tabs
Y R O Tabs


Song lyrics



↑ Back to top | Tablatures and chords are parodies/interpretations of the original songs. You may use it for private study, scholarship, research or language learning purposes only
© 2014 AZChords.com Contact us | Privacy policy | DMCA | Add/correct tabs | Request tabs | Top 50 tabs