» » »

Into The Night Bass tabs (ver.1)

Artists:  A B C D E F G H I J K L M N O P Q R S T U V W X Y Z # 

Into The Night Bass tabs (ver.1)

Racer X
Rating:
0/5 (0 votes)

Hard to play? Try these video lessons and learn fast.
                Notes: tuned down 1/2 step, sounds great with a pick

Intro
-9-7---------------------7
----10-9-7----------------
----------10-9-7-5--------
-------------------0-0-0--

-7-5-4-------------------5
-------7-5-4--------------
-------------7-5-3--------
-------------------0-0-0--

Intro / to Pre-verse
-----------------------------
-----------------------------
-2--5--7---7---7---7---7-----
--------0-0-0-0-0-0-0-0-0-0-0

-----------------------------------
-----------------------------------
-3-3-3-3-3-3-3-3--2-2-2-2-2-2--5--7
-----------------------------------

----------------------
----------------------
----7---7---7---7-----
-0-0-0-0-0-0-0-0-0-0-0

---------------------------------
---------------------------------
-3-3-3-3-3-3-3-3--2-2-2-2--------
--------------------------1-1-1-1

Verse
----
----
----
-0(r)

Pre-chorus
-9-7---------------------7(hold)
----10-9-7----------------------
----------10-9-7-5--------------
-------------------0-0-0--------

-7-5-4-------------------5(hold)-----
-------7-5-4-------------------------
-------------7-5-3------------------2
-------------------0-0-0-------------

Chorus
-----------------------
-----------------------
-7---7---7---7---7-----
--0-0-0-0-0-0-0-0-0-0-0

-----------------------------------
-----------------------------------
-3-3-3-3-3-3-3-3--2-2-2-2-2-2--5--7
-----------------------------------

----------------------
----------------------
----7---7---7---7-----
-0-0-0-0-0-0-0-0-0-0-0

---------------------------------
---------------------------------
-3-3-3-3-3-3-3-3--2-2-2-2--------
--------------------------1-1-1-1

Verse
-----
-----
-----
-0(r)

Pre-chorus
-9-7---------------------7(hold)
----10-9-7----------------------
----------10-9-7-5--------------
-------------------0-0-0--------

-7-5-4-------------------5(hold)-----
-------7-5-4-------------------------
-------------7-5-3------------------2
-------------------0-0-0-------------

Chorus
-----------------------
-----------------------
-7---7---7---7---7-----
--0-0-0-0-0-0-0-0-0-0-0

-----------------------------------
-----------------------------------
-3-3-3-3-3-3-3-3--2-2-2-2-2-2--5--7
-----------------------------------

----------------------
----------------------
----7---7---7---7-----
-0-0-0-0-0-0-0-0-0-0-0

---------------------------------
---------------------------------
-3-3-3-3-3-3-3-3--2-2-2-2--------
--------------------------1-1-1-1

Bridge
--------------------
--------------------
-7(r)-6(r)-5(r)-4(r)
--------------------

-----------------
----------------3
-----------------
-5(r)-4(r)-3(r)--

Pre-solo
-----------------
-----------------
-----------------
-0--0--0--0--0--0

---------------------------------7-9
---------------7-9--------7-9-10----
--------7-9-10-----7-9-10-----------
-7-9-10-----------------------------

Guitar solo
-----
-----
-----
-0(r)

--------------------
--------------------
--------------------
-7(r)-6(r)-5(r)-4(r)

------------------
------------------
-7(r)-9(r)-10(r)--
-----------------8

Verse
---------------
---------------
------7--7-----
-0(r)------0(r)

Pre-chorus (a bit different than others)
-9-7-----------------------7(hold)
----10-9-7------------------------
----------10-9-7-5----------------
-------------------0-0-0-0--------

-7-5-4-------------------5(hold)
-------7-5-4--------------------
-------------7-5-3--------------
-------------------0--0---------

(*note at bottom of tab)
-------------------------------------------5-7-8-7-5--------------
-------------------------5-6-8-6-5---5-6-8-----------8-6-5--------
-------5-----------5-6-8-----------8-----------------------8-6-5--
-5-6-8---8-6-5-6-8-----------------------------------------------7

Chorus (play this one twice)
-----------------------
-----------------------
-7---7---7---7---7-----
--0-0-0-0-0-0-0-0-0-0-0

-----------------------------------
-----------------------------------
-3-3-3-3-3-3-3-3--2-2-2-2-2-2--5--7
-----------------------------------

----------------------
----------------------
----7---7---7---7-----
-0-0-0-0-0-0-0-0-0-0-0

---------------------------------
---------------------------------
-3-3-3-3-3-3-3-3--2-2-2-2--------
--------------------------1-1-1-1

(r) = repeat note until note changes
(hold) = hold that note until note changes

This is a pretty cool song, it stays fairly basic
(for the most part) until the last Pre-chorus, which
has a distinctive (about 3 seconds long) bass solo,
including all 4 strings (for you dire bass players)
played at extreme speeds.  I hope you enjoyed playing
this song as much as I enjoyed tabbing it for you.

*Note:
This is the last Pre-chorus.  Its a bit different than
the others, because it has a very fast bass solo at
the end,
leading into the Chorus.  Its pretty tricky (since the
bass
is pretty low volumed in the background), and its hard
to get
the timing just PERFECT, but just practice it, I think
its
pretty correct as it is.
            
Hard to play? Try these video lessons and learn fast. | Correct




comments powered by Disqus
↑ Back to top | Tablatures and chords are parodies/interpretations of the original songs. You may use it for private study, scholarship, research or language learning purposes only