» » »

Frenzy Bass tabs (ver.1)

Artists:  A B C D E F G H I J K L M N O P Q R S T U V W X Y Z # 

Frenzy Bass tabs (ver.1)

Racer X
Rating:
0/5 (0 votes)

Tabs too difficult? Try these video lessons and learn fast.
                Notes: tuned down 1/2 step

Intro (repeat until snare drum fill in)
----------------
----------------
-1-1-1-1-1-1-1-1
----------------

Pre-solo
-----------------
-----------------
-----------------
-5--3--1(r)-/4(r)

----------------------------------
-12-9-10----9---------------------
---------12---11-12-8-10---8------
-------------------------12--10-12

-----------------------
-----------------------
-----------------------
-5--3--1(r)--1--1--3--4

(rest of the song is a guitar solo)

Note:
This is an Eruption-style guitar solo by Paul Gilbert,
and the bass 
stays pretty stable thru the whole intro.  The only
problem I have 
with playing this song is the real fast down scale,
that occurs right 
before the solo begins.  It took me a while to get
used to 
it... enjoy.
            
Tabs too difficult? Try these video lessons and learn fast.


comments powered by Disqus
↑ Back to top | Tablatures and chords are parodies/interpretations of the original songs. You may use it for private study, scholarship, research or language learning purposes only