>
 >
Colorado Bulldog

Colorado Bulldog Guitar Tabs

Racer X - Colorado Bulldog chords, tabs, tablatures, lyrics

Guitar lessons | Add/correct | Request | Top 50 tabs Artists:  A B C D E F G H I J K L M N O P Q R S T U V W X Y Z 0-9

Colorado Bulldog Guitar Tabs – Racer X

CD, Sheet music, Poster

Do you like Colorado Bulldog? Share with your friends now
Tabs
Intro:
|-------------------------------------------------------------------------|
|-------------------------------------------------------------------------|
|----------11-12-14----------12-14-16----------14-16-17----------16-17-19-|
|-10-12-14----------12-14-16----------14-16-17----------16-17-19----------|
|-------------------------------------------------------------------------|
|-------------------------------------------------------------------------|


|----------------------------------------------------------------14-15-17-|
|---------------------------15-17-19-----------17-19-20-13-15-17----------|
|---------17-19-21-14-16-17-----------16-17-19----------------------------|
|17-19-21-----------------------------------------------------------------|
|-------------------------------------------------------------------------|
|-------------------------------------------------------------------------|


|-19-17-15----------17-15-14----------------------------------------------|
|----------19-17-15----------17-15-13-20-19-17----------19-17-15----------|
|----------------------------------------------19-17-16----------17-16-14-|
|-------------------------------------------------------------------------|
|-------------------------------------------------------------------------|
|-------------------------------------------------------------------------|


|-------------------------------------------------------------------------|
|-------------------------------------------------------------------------|
|-21-19-17----------19-17-15----------17-16-14----------16-14-12----------|
|----------21-19-17----------19-17-15----------17-16-14----------16-14-12-|
|-------------------------------------------------------------------------|
|-------------------------------------------------------------------------|

|-------||
|-------||
|-------||
|-------||
|-14\---||
|-12\---||
                                                      
                        


3 times:
     ~~~~ +-      ~~~~ +
|------------------------------------||
|-10-9----10----10-9----10----10--8--||
|-7--9----9-----7--9----9-----9---7--||
|-7--9----------7--9-----------------||
|------------------------------------||
|------------------------------------||

     ~~~~ +-
|------------|
|-10-9----10-|
|-7--9----9--|
|-7--9-------|
|------------|
|------------|


|-----------------------------------------12-14-15-14-12------------------|
|--------------------------------12-13-15----------------15-13-12--<17>\--|
|-----------------------11-12-14------------------------------------------|
|-------------0-2--4-14---------------------------------------------------|
|-------0-2-3-------------------------------------------------------------|
|-0-2-3-------------------------------------------------------------------|


 Verse I:    Pre-Chorus:
              ~~~~    +              ~~~~~
|-------|-----------------------------------------------------------------|
|-------|-----5-------5-----3--5------5-------12---15--16-17-18-19--------|
|-6/7---|--4--4----4--4-----2--4--4---4------[14---17--18-19-20-21]-------|
|-5/6---|--4-------4--------------4-----------unison-bends-on-G-string----|
|-6/7---|--2-------2--------------2---------------------------------------|
|-------|-----------------------------------------------------------------|

 Chorus:                                         Let ring................
|------------------------------------------------------------------------|
|------------------------------------------------------------------------|
|--------9^8^7-----7-----9-------9^8^7-----7---------0-----2-----0-----2-|
|-0-2--9-------9-7-7--7--9--0-2--------9-7-7--7----2-----4-----2-----4---|
|---2--------------5--7--7----2------------5--7--3-----5-----3-----5-----|
|---0-----------------5-------0---------------5--------------------------|

     ~~~~ +-      ~~~~ +
|------------------------------------|
|-10-9----10----10-9----10----10--8--|
|-7--9----9-----7--9----9-----9---7--|
|-7--9----------7--9-----------------|
|------------------------------------|
|------------------------------------|

     ~~~~ +-
|------------|
|-10-9----10-|
|-7--9----9--|
|-7--9-------|
|------------|
|------------|


|----19-17-15----------------------------------------------------------|
|-17----------19-17-15-------------------------------------------------|
|----------------------17-16-14----------------------------------------|
|-------------------------------17-16-14-------------------------------|
|----------------------------------------17-15-14----------------2-3-5-|
|-------------------------------------------------17-15-14-2-3-5-------|

Verse II:  Pre-Chorus:
              ~~~~    +              ~~~~~
|-------|-----------------------------------------------16-17-18-19-----|
|-------|-----5-------5-----3--5------5-------12---15--[19-20-21-22]----|
|-6/7---|--4--4----4--4-----2--4--4---4------[14---17]------------------|
|-5/6---|--4-------4--------------4-------------------------------------|
|-6/7---|--2-------2--------------2-------------------------------------|
|-------|---------------------------------------------------------------|


 Chorus:                                         Let ring................
|------------------------------------------------------------------------|
|------------------------------------------------------------------------|
|-------9^8^7-----7-----9--------9^8^7-----7---------0-----2-----0-----2-|
|-0-2---------9-7-7--7--9---0-2--------9-7-7--7----2-----4-----2-----4---|
|---2-------------5--7--7-----2------------5--7--3-----5-----3-----5-----|
|---0----------------5---/x\--0---------------5--------------------------|

 Bridge:
 2 times
    ~~~~    +-              +
|------------------------------------------||
|------------------------------------------||
|-----------4----------------4----2--------||
|-2-4----4--4-----2--4----4--4----2---4----||
|-2-4----4--------2--4----4-----------4----||
|------------------------------------------||


 2 times
|------------------------------------------------------|
|------------------------------------------------------|
|------------------------------------------------------|
|-----2-4----------2-4---------2-4-----2-4-----2-4-----|
|-2/4----------2/4---------2/4-----2/4-----2/4---------|
|---------2-2----------2-2-------------------------2-2-|

                                                      
    Second time
                                                      
    goes to the
                                                      
    solo
|----------------------------------------------------------|-14-<14>--|
|----------------------------------------------------------|----------|
|------9-11----------9-11----------9-11------9-11------9-11-----------|
|-9/11----------9/11----------9/11------9/11------9/11----------------|
|-----------9-9-----------9-9-----------------------------------------|
|---------------------------------------------------------------------|


 Solo:
|---------------------------------------------------------------14^12----|
|-------<13>----------15-13-15-15-13----13-------13-15-16-15-13-------13-|
|-13-14------14-12-14----------------14----12-14-------------------------|
|------------------------------------------------------------------------|
|------------------------------------------------------------------------|
|------------------------------------------------------------------------|

                           ~~~~~~
|-15^12----14-15-17-15----/17------17-15^17^15^14--------------|
|-------13-------------17-------------------------17-17^19-17--|
|--------------------------------------------------------------|
|--------------------------------------------------------------|
|--------------------------------------------------------------|
|--------------------------------------------------------------|

                                                      
      ~~~~~~~~~
|-15-14^15^14^13^12----12----------12------------------------------------|
|-------------------15----15^13^12-----15^13^12--15^13^12----------------|
|---------------------------------------------------------12-14-------\\-|
|------------------------------------------------------------------------|
|------------------------------------------------------------------------|
|------------------------------------------------------------------------|


|-------------------------------------------------------------------------|
|-------------------------------------------------------------------------|
|----------14----------------14----------------14----------------14-------|
|-14-16-17----17-16-14-16-17----17-16-14-16-17----17-16-14-16-17----17-16-|
|-------------------------------------------------------------------------|
|-------------------------------------------------------------------------|


|-------------------------------------------------------------------------|
|-------------------------------------------------------------------------|
|----------16----------------16----------------16----------------16-------|
|-16-17-19----19-17-16-17-19----19-17-16-17-19----19-17-16-17-19----19-17-|
|-------------------------------------------------------------------------|
|-------------------------------------------------------------------------|


|-----------------------------------------------------------|
|-----------------------------------------------------------|
|----------17----------------17----------------17--17-19-20-|
|-17-19-21----21-19-17-19-21----21-19-17-19-21--------------|
|-----------------------------------------------------------|
|-----------------------------------------------------------|

                                                     
~~~~
|----------------------------17-----------------19-22-24--|
|-17----------------17-19-20----20-19-17-19-20------------|
|----20-19-17-19-20---------------------------------------|
|---------------------------------------------------------|
|---------------------------------------------------------|
|---------------------------------------------------------|

     ~~~~ +-      ~~~~ +
|------------------------------------|
|-10-9----10----10-9----10----10--8--|
|-7--9----9-----7--9----9-----9---7--|
|-7--9----------7--9-----------------|
|------------------------------------|
|------------------------------------|

     ~~~~ +- ,  ,  ,  ,  ,  ,  ,
|-------------13-14-15-16-17-18-19\-|
|-10-9----10--14-15-16-17-18-19-20\-|
|-7--9----9-------------------------|
|-7--9------------------------------|
|-----------------------------------|
|-----------------------------------|

 Verse III:  Pre-Chorus:
              ~~~~    +              ~~~~~
|-------|-----------------------------------|
|-------|-----5-------5-----3--5------5-----|
|-6/7---|--4--4----4--4-----2--4--4---4-----|
|-5/6---|--4-------4--------------4---------|
|-6/7---|--2-------2--------------2---------|
|-------|-----------------------------------|

        +        +        +        +
|-5^7^8-12^8^7^5-14^8^7^5-12^8^7^5-14^8^7^5\--|
|---------------------------------------------|
|---------------------------------------------|
|---------------------------------------------|
|------------------------------------------/x\|
|---------------------------------------------|


|-------------|
|-------------|
|-4-4-4-4-----|
|-4-4-4-4-----|
|-2-2-2-2-/x\-|
|-------------|

 Chorus:                                         Let ring................
|------------------------------------------------------------------------|
|------------------------------------------------------------------------|
|-------9^8^7-----7-----9--------9^8^7-----7---------0-----2-----0-----2-|
|-0-2---------9-7-7--7--9---0-2--------9-7-7--7----2-----4-----2-----4---|
|---2-------------5--7--7-----2------------5--7--3-----5-----3-----5-----|
|---0----------------5--------0---------------5--------------------------|


|-----------------------------------------------------------------------|
|-----------------------------------------------------------------------|
|--------9^8^7-----7-----7^8^9-7^8^9-7^8^9-7^8^9-7^8^9-7^8^9-7^8^9-/x\--|
|-0-2----------9-7-7--7-------------------------------------------------|
|---2--------------5--7-------------------------------------------------|
|---0-----------------5-------------------------------------------------|

                        Let ring.........................
|---------------------------------------------------------|
|---------------------------------------------------------|
|-------9^8^7-----7---------0-----2-----0-----2-----0-----|
|-0-2---------9-7-7--7----2-----4-----2-----4-----2----0--|
|---2-------------5--7--3-----5-----3-----5-----3---------|
|---0----------------5------------------------------------|
FreakMen





Comments


Popular Racer X tabs & chords
Frenzy Bass Tabs
Motorman Bass Tabs
She Wants Control Bass Tabs
Technical Difficulties Bass Tabs
Blowin Up The Tabs
Bolt In My Heart Tabs
Executioners Song Tabs
Scarified 1 Tabs
Viking Kong Tabs
Y R O Tabs


Song lyrics



↑ Back to top | Tablatures and chords are parodies/interpretations of the original songs. You may use it for private study, scholarship, research or language learning purposes only
© 2014 AZChords.com Contact us | Privacy policy | DMCA | Add/correct tabs | Request tabs | Top 50 tabs