>
 >
B R O

B R O Guitar Tabs

Racer X - B R O chords, tabs, tablatures, lyrics

Guitar lessons | Add/correct | Request | Top 50 tabs Artists:  A B C D E F G H I J K L M N O P Q R S T U V W X Y Z 0-9

B R O Guitar Tabs – Racer X

CD, Sheet music, Poster

Do you like B R O? Share with your friends now
Tabs
Hoe you like it because I woked pretty hard one that one !
Standard Tunning ( EADGBE )
(/Distortion...)

E||---------------------------------|----------------5-----------------| 
B||--5-6-5-6-5-6-5-6-5-6-5-6-5--8-6-|--8-6-5---5-6-8---8-6-8-6-5---5-6-| 
G||---------------------------------|--------7-------------------7-----| 
D||---------------------------------|----------------------------------| 
A||---------------------------------|----------------------------------| 
E||---------------------------------|----------------------------------| 
 
                                                                         
----5-6-5-6-5---5-8-6-8-6-5---6-5---|----------------------------------| 
--8-----------8-------------8-----8-|--6-8-6-5-6-5-----5-------5-6-5---| 
------------------------------------|--------------7-5---7-5-7-------7-| 
------------------------------------|----------------------------------| 
------------------------------------|----------------------------------| 
------------------------------------|----------------------------------| 
 
                                                             
----------------------------------|------------------------| 
----5-----------------------------|------------------------| 
--5---7-5-7-5---------------------|------------------------| 
--------------8-7-8-7-5-7-5---5---|------------------------| 
----------------------------8---8-|--7-5-7-8---5-----------| 
----------------------------------|----------8-------------| 
 
                                                    
--------------------------------------------------| 
--------------------------------------------------| 
--------------------------------------------------| 
-----------------------------10----10-------------| 
-----------10-12-13-12-10-13----13----13-12-10-12-| 
--10-12-13----------------------------------------| 
 
                                                  
--------------------------------------------------| 
--------------------------------------------------| 
--------------------------10----------12-10-12-10-| 
-----10-12-10-------10-14----14-12-14-------------| 
--13----------12-13-------------------------------| 
--------------------------------------------------| 
 
                                                    
--------------------------------------------------| 
-----------------------------------------------11-| 
-----------10-12-14-12-10-12-10-------10-12-14----| 
--14-12-14----------------------12-14-------------| 
--------------------------------------------------| 
--------------------------------------------------| 
 
                                                  
--------------------------------------------------| 
--13-11-13-11-------------------------------------| 
--------------14-12-14-12-10-12-10----------------| 
-----------------------------------14-12-14-12-10-| 
--------------------------------------------------| 
--------------------------------------------------| 
 
                                                    
--------------------------------------------------| 
-----------10-------------------------------------| 
--------10----10-12-14-12-10----10-12-14-10-14-12-| 
--12-14----------------------14-------------------| 
--------------------------------------------------| 
--------------------------------------------------| 
 
                                                    
-----------10-------10----------------10-12-13-15-| 
-----10-11----11-13----13-11-10-11-13-------------| 
--10----------------------------------------------| 
--------------------------------------------------| 
--------------------------------------------------| 
--------------------------------------------------| 
 
                                                    
--13-12----12-13-15-17-15-13-15-13----------13-15-| 
--------15-------------------------17-15-17-------| 
--------------------------------------------------| 
--------------------------------------------------| 
--------------------------------------------------| 
--------------------------------------------------| 
 
                                                  
--17-18-20-18-20-18-17-15-17-15-13-15-13-12----12-| 
--------------------------------------------15----| 
--------------------------------------------------| 
--------------------------------------------------| 
--------------------------------------------------| 
--------------------------------------------------| 
 
                                                                                
------------------------------------|-----------------------------------------| 
--15-13----13-15--------------------|-----------------------------------------| 
--------14--------------------------|-----------------------------------------| 
------------------------------------|-------------------7--------10-8----7-10-| 
-----------------------------8-7----|--7-8-10-8----7-10---10-8-7------10------| 
----------------------6-8-10-----10-|-----------10----------------------------| 
 
                                                                               
---------------------------------------|---------------------------8-10-8bfull 
----------------------------8----------|-------------------8-10-11-----------| 
--7--------10-9-7----7-9-10---10-9-7-9-|--7---------7-9-10-------------------| 
----10-8-7--------10-------------------|----10-8-10--------------------------| 
---------------------------------------|-------------------------------------| 
---------------------------------------|-------------------------------------| 
 
                         (I'll do the counterpoint later)                                      
--x----x----x----/----|--5--------5--------5--------5--------| 
--x----x----x----/----|-----6--------6--------6--------6-----| 
--x----x----x----/----|--------7--------7--------7--------7--| 
----------------------|--------------------------------------| 
----------------------|--------------------------------------| 
----------------------|--------------------------------------| 
 
                                                                               
--6--------6--------6--------6--------|--3--------3--------6--3-----5--3-----| 
-----8--------8--------8--------8-----|-----5--------5-----------5--------6--| 
--------9--------9--------9--------9--|--------6--------6--------------------| 
--------------------------------------|--------------------------------------| 
--------------------------------------|--------------------------------------| 
--------------------------------------|--------------------------------------| 
 
                                               
--------5-----5--10------10--13--10--13--19--| 
-----6-----6---------10----------------------| 
--7------------------------------------------| 
---------------------------------------------| 
---------------------------------------------| 
---------------------------------------------| 
 
                                                    
--------------------------------------------------| 
--18--17--15--------------------------15----------| 
--------------17--16--14--13--------------16--17--| 
------------------------------16--14--------------| 
--------------------------------------------------| 
--------------------------------------------------| 
 
                                    
----------17----------------------| 
--------------16--15--13----------| 
--------------------------15--14--| 
----------------------------------| 
----------------------------------| 
----------------------------------| 
 
                                                  
------------------------------------------15----| 
------------------13----------15----------------| 
--12------------------14--15------15--12--------| 
------16--14--12--------------------------------| 
------------------------------------------------| 
------------------------------------------------| 
 
                                                
----------------------------------------------| 
--15--13------------------13----------18------| 
----------15--14--12--14------14--------------| 
----------------------------------15----------| 
----------------------------------------------| 
----------------------------------------------| 
 
                                                    
--------------------------------------------------| 
--13----------------------------------------------| 
------15--14--12------12--15--14--12--------------| 
------------------15------------------15--14--15--| 
--------------------------------------------------| 
--------------------------------------------------| 
 
                                                    
------------------------------12----------12------| 
------------------15--------------14----------14--| 
--------------14------12--14----------14----------| 
--14--12--15--------------------------------------| 
--------------------------------------------------| 
--------------------------------------------------| 
 
                                                    
------12----------------------12----------12------| 
----------14----------------------14----------14--| 
--14----------14--15--14--12----------12----------| 
--------------------------------------------------| 
--------------------------------------------------| 
--------------------------------------------------| 
 
                                                    
------12------------------10----------10----------| 
----------14------------------11----------11------| 
--12----------12--14--10----------10----------10--| 
--------------------------------------------------| 
--------------------------------------------------| 
--------------------------------------------------| 
 
                                                    
--10----------10----------------------------------| 
------11----------11------13--10------13--10------| 
----------10----------10----------11----------11--| 
--------------------------------------------------| 
--------------------------------------------------| 
--------------------------------------------------| 
 
                                                    
--------------------------------------------------| 
--13--10------13--10--11----------------------11--| 
----------11--------------12--11--12------12------| 
--------------------------------------12----------| 
--------------------------------------------------| 
--------------------------------------------------| 
 
                                                    
--------------------------------------------------| 
----------11--------------------------11----------| 
--12----------12----------12--11--12------12------| 
------12----------12--13----------------------13--| 
--------------------------------------------------| 
--------------------------------------------------| 
 
                                                       
-----------------------------------------------------| 
--11----------11-------------11----------11----------| 
------12----------12-------------12----------12------| 
----------13----------13--11---------11----------11--| 
-----------------------------------------------------| 
-----------------------------------------------------| 
 
                                                    
--------------------------------------------------| 
--11----------------------------------------------| 
------12------14--12--10--14--10------14--10------| 
----------11----------------------12----------12--| 
--------------------------------------------------| 
--------------------------------------------------| 
 
                                                    
--------------------------------------------------| 
--------------------------------------------------| 
--14--10------------------12----------12----------| 
----------12--11--12--14------14----------14------| 
----------------------------------13----------13--| 
--------------------------------------------------| 
 
                                                  
------------------------------------------------| 
------------------------------------------------| 
--12--------------12----------------------------| 
------14--------------15--12--------------------| 
----------16--12--------------15-13-12----------| 
---------------------------------------15-13-12-| 
 
                                         
---------------------------------------| 
---------------------------------------| 
---------------------------------------| 
---------------------------------------| 
-----12------5-------------5-12-8----8-| 
--13----13-5---8-6-5-3-1-0--------10---| 
 
                                                    
--------------------------------10-13-17-13----13-| 
--------------------10-------10-------------15----| 
-----------------10-------10----------------------| 
-----12-------12-------12-------------------------| 
--12-------12-------------------------------------| 
--------13----------------------------------------| 
 
                                          
-----------------------------15-17------| 
--15-12-15----------------17------------| 
-----------13-16-14-13-14---------------| 
----------------------------------------| 
----------------------------------------| 
----------------------------------------| 
 
                                                                           
--17------------------------------------|--------------------------------| 
------15--17--15--15-17-15-17-15-17-15--|--15----15--13------15----------| 
----------------------------------------|----------------14------15--12--| 
----------------------------------------|--------------------------------| 
----------------------------------------|--------------------------------| 
----------------------------------------|--------------------------------| 
 
                                                                     
----------------------------------|--------------------------------| 
--13------------------------------|--------------------------------| 
------14--11--15--12------14------|--------------------------------| 
----------------------14------16--|------17--14------16------------| 
----------------------------------|--17----------16--17----17--16--| 
----------------------------------|--------------------------------| 
 
                         
----------------------|| 
----------------------|| 
------------19--------|| 
----------------------|| 
--17------------------|| 
----------------------||





Comments


Popular Racer X tabs & chords
Fire Of Rock Bass Tabs
Into The Night Bass Tabs
Motorman Bass Tabs
Technical Difficulties 2 Bass Tabs
Fire Of Rock Drum Tabs
Blowin Up The Tabs
Colorado Bulldog Tabs
Fire Of Rock Tabs
Miss Mistreater Tabs
Technical Difficulties Tabs


Song lyrics



↑ Back to top | Tablatures and chords are parodies/interpretations of the original songs. You may use it for private study, scholarship, research or language learning purposes only
© 2014 AZChords.com Contact us | Privacy policy | DMCA | Add/correct tabs | Request tabs | Top 50 tabs