» » »

Ra, Supernova Tabs (ver.1)

Artists:  A B C D E F G H I J K L M N O P Q R S T U V W X Y Z # 

Supernova Tabs (ver.1)

Ra Tabs
Rating:
4/5 (2 votes)
Supernova lessons Tabs too difficult? Try these video lessons and learn fast
                -------------------------------------------------------------------------------
-------------------------------------------------------------------------------


Tuning: Drop D - DADGBE

-------------------------------------------------------------------------------

INTRO

Guitar 1 (distortion):

e|------------------------------------------------------------------------------|
B|------------------------------------------------------------------------------|
G|------------------------------------------------------------------------------|
D|-99-----------77----------99-----------55----------22-------------------------|
A|-99-----------77----------99-----------55----------22-------------------------|
E|-99-----------77----------99-----------55----------22-------------------------|

e|------------------------------------------------------------------------------|
B|------------------------------------------------------------------------------|
G|------------------------------------------------------------------------------|
D|-99-----------77----------99-----------55----------22-------------------------|
A|-99-----------77----------99-----------55----------22-------------------------|
E|-99-----------77----------99-----------55----------22-------------------------|

Guitar 2:

e|------------------------------------------------------------------------------|
B|------------------------------------------------------------------------------|
G|------------------------------------------------------------------------------|
D|---9-12-9-12-----9-11-9------9-12-9-12----12-12-11-14-14-11/12----------------|
A|------------------------9-----------------------------------------------------|
E|------------------------------------------------------------------------------|

e|------------------------------------------------------------------------------|
B|------------------------------------------------------------------------------|
G|------------------------------------------------------------------------------|
D|---9-12-9-12-----9-11-9------9-12-9-12----12-12-11-14-14-11/12----------------|
A|------------------------9-----------------------------------------------------|
E|------------------------------------------------------------------------------|

VERSE 1

Guitar 1:

Palm-muted

e|------------------------------------------------------------------------------|
B|------------------------------------------------------------------------------|
G|------------------------------------------------------------------------------|
D|-9999999999999999-7777777777777777-5555555555555555-2222222222222222----------|
A|-9999999999999999-7777777777777777-5555555555555555-2222222222222222----------|
E|-9999999999999999-7777777777777777-5555555555555555-2222222222222222----------|

e|------------------------------------------------------------------------------|
B|------------------------------------------------------------------------------|
G|------------------------------------------------------------------------------|
D|-9999999999999999-7777777777777777-5555555555555555-2222222222222222----------|
A|-9999999999999999-7777777777777777-5555555555555555-2222222222222222----------|
E|-9999999999999999-7777777777777777-5555555555555555-2222222222222222----------|

Guitar 2:

e|-------------|
B|-------------|
G|-------------|
D|-9h11h12p11--|
A|-------------|
E|-------------| X8

PRE-CHORUS

e|------------------------------------------------------------------------------|
B|------------------------------------------------------------------------------|
G|------------------------------------------------------------------------------|
D|-44-444-4/5--22-222-2/5----44-444-4/5--222222222222---------------------------|
A|-44-444-4/5--22-222-2/5----44-444-4/5--222222222222---------------------------|
E|-44-444-4/5--22-222-2/5----44-444-4/5--222222222222---------------------------|

CHORUS

e|------------------------------------------------------------------------------|
B|------------------------------------------------------------------------------|
G|--------------------------------------------1414141414141414-1212121212121212-|
D|-99999999-1111111111111111-1212121212121212-1414141414141414-1212121212121212-|
A|-99999999-1111111111111111-1212121212121212-1212121212121212-1010101010101010-|
E|-99999999-1111111111111111-1212121212121212-----------------------------------|

            ^^ 8x11s

e|------------------------------------------------------------------------------|
B|------------------------------------------------------------------------------|
G|-1111111111111111-99999999----------------------------------------------------|
D|-1111111111111111-99999999-11111111-8888--------------------------------------|
A|-9-9-9-9-9-9-9-9--77777777-11111111-8888--------------------------------------|
E|---------------------------11111111-8888--------------------------------------|

                             ^^ 4x11s

e|------------------------------------------------------------------------------|
B|------------------------------------------------------------------------------|
G|--------------------------------------------1414141414141414-1212121212121212-|
D|-99999999-1111111111111111-1212121212121212-1414141414141414-1212121212121212-|
A|-99999999-1111111111111111-1212121212121212-1212121212121212-1010101010101010-|
E|-99999999-1111111111111111-1212121212121212-----------------------------------|

e|------------------------------------------------------------------------------|
B|------------------------------------------------------------------------------|
G|-1111111111111111-99999999----------------------------------------------------|
D|-1111111111111111-99999999-11111111-8888--------------------------------------|
A|-9-9-9-9-9-9-9-9--77777777-11111111-8888--------------------------------------|
E|---------------------------11111111-8888--------------------------------------|

INTRO

Guitar 1 (distortion):

e|------------------------------------------------------------------------------|
B|------------------------------------------------------------------------------|
G|------------------------------------------------------------------------------|
D|-99-----------77----------99-----------55----------22-------------------------|
A|-99-----------77----------99-----------55----------22-------------------------|
E|-99-----------77----------99-----------55----------22-------------------------|


Guitar 2:

e|------------------------------------------------------------------------------|
B|------------------------------------------------------------------------------|
G|------------------------------------------------------------------------------|
D|---9-12-9-12-----9-11-9------9-12-9-12----12-12-11-14-14-11/12----------------|
A|------------------------9-----------------------------------------------------|
E|------------------------------------------------------------------------------|

BRIDGE

Palm-muted, no distortion.

e|------------------------------------|
B|------------------------------------|
G|------------------------------------|
D|-121212121212121212121212/11111111--|
A|-x-x-x-x-x-x-x-x-x-x-x-x--x-x-x-x---|
E|-121212121212121212121212/11111111--| X4

Then:

Guitar 1:

Palm-muted

e|------------------------------------------------------------------------------|
B|------------------------------------------------------------------------------|
G|------------------------------------------------------------------------------|
D|-9999999999999999-7777777777777777-5555555555555555-22222222-00-22-00-22------|
A|-9999999999999999-7777777777777777-5555555555555555-22222222-00-22-00-22------|
E|-9999999999999999-7777777777777777-5555555555555555-22222222-00-22-00-22------|

Guitar 2:

e|-------------|
B|-------------|
G|-------------|
D|-9h11h12p11--|
A|-------------|
E|-------------| X4

PRE-CHORUS

e|------------------------------------------------------------------------------|
B|------------------------------------------------------------------------------|
G|------------------------------------------------------------------------------|
D|-44-444-4/5--22-222-2/5----44-444-4/5--222222222222---------------------------|
A|-44-444-4/5--22-222-2/5----44-444-4/5--222222222222---------------------------|
E|-44-444-4/5--22-222-2/5----44-444-4/5--222222222222---------------------------|

CHORUS

e|------------------------------------------------------------------------------|
B|------------------------------------------------------------------------------|
G|--------------------------------------------1414141414141414-1212121212121212-|
D|-99999999-1111111111111111-1212121212121212-1414141414141414-1212121212121212-|
A|-99999999-1111111111111111-1212121212121212-1212121212121212-1010101010101010-|
E|-99999999-1111111111111111-1212121212121212-----------------------------------|

            ^^ 8x11s

e|------------------------------------------------------------------------------|
B|------------------------------------------------------------------------------|
G|-1111111111111111-99999999----------------------------------------------------|
D|-1111111111111111-99999999-11111111-8888--------------------------------------|
A|-9-9-9-9-9-9-9-9--77777777-11111111-8888--------------------------------------|
E|---------------------------11111111-8888--------------------------------------|

                             ^^ 4x11s

e|------------------------------------------------------------------------------|
B|------------------------------------------------------------------------------|
G|--------------------------------------------1414141414141414-1212121212121212-|
D|-99999999-1111111111111111-1212121212121212-1414141414141414-1212121212121212-|
A|-99999999-1111111111111111-1212121212121212-1212121212121212-1010101010101010-|
E|-99999999-1111111111111111-1212121212121212-----------------------------------|

e|------------------------------------------------------------------------------|
B|------------------------------------------------------------------------------|
G|-1111111111111111-99999999----------------------------------------------------|
D|-1111111111111111-99999999-11111111-8888--------------------------------------|
A|-9-9-9-9-9-9-9-9--77777777-11111111-8888--------------------------------------|
E|---------------------------11111111-8888--------------------------------------|


BREAK - which I can't tab.


PRE-CHORUS

e|------------------------------------------------------------------------------|
B|------------------------------------------------------------------------------|
G|------------------------------------------------------------------------------|
D|-44-444-4/5--22-222-2/5----44-444-4/5--222222222222---------------------------|
A|-44-444-4/5--22-222-2/5----44-444-4/5--222222222222---------------------------|
E|-44-444-4/5--22-222-2/5----44-444-4/5--222222222222---------------------------|

CHORUS

e|------------------------------------------------------------------------------|
B|------------------------------------------------------------------------------|
G|--------------------------------------------1414141414141414-1212121212121212-|
D|-99999999-1111111111111111-1212121212121212-1414141414141414-1212121212121212-|
A|-99999999-1111111111111111-1212121212121212-1212121212121212-1010101010101010-|
E|-99999999-1111111111111111-1212121212121212-----------------------------------|

            ^^ 8x11s

e|------------------------------------------------------------------------------|
B|------------------------------------------------------------------------------|
G|-1111111111111111-99999999----------------------------------------------------|
D|-1111111111111111-99999999-11111111-8888--------------------------------------|
A|-9-9-9-9-9-9-9-9--77777777-11111111-8888--------------------------------------|
E|---------------------------11111111-8888--------------------------------------|

                             ^^ 4x11s

e|------------------------------------------------------------------------------|
B|------------------------------------------------------------------------------|
G|--------------------------------------------1414141414141414-1212121212121212-|
D|-99999999-1111111111111111-1212121212121212-1414141414141414-1212121212121212-|
A|-99999999-1111111111111111-1212121212121212-1212121212121212-1010101010101010-|
E|-99999999-1111111111111111-1212121212121212-----------------------------------|

e|------------------------------------------------------------------------------|
B|------------------------------------------------------------------------------|
G|-1111111111111111-99999999----------------------------------------------------|
D|-1111111111111111-99999999-11111111-8888--------------------------------------|
A|-9-9-9-9-9-9-9-9--77777777-11111111-8888--------------------------------------|
E|---------------------------11111111-8888--------------------------------------|

OUTRO

Guitar 1 (distortion):

e|------------------------------------------------------------------------------|
B|------------------------------------------------------------------------------|
G|------------------------------------------------------------------------------|
D|-99-----------77----------99-----------55----------22----------99-------------|
A|-99-----------77----------99-----------55----------22----------99-------------|
E|-99-----------77----------99-----------55----------22----------99-------------|


Guitar 2:

e|------------------------------------------------------------------------------|
B|------------------------------------------------------------------------------|
G|------------------------------------------------------------------------------|
D|---9-12-9-12-----9-11-9------9-12-9-12----12-12-11-14-14-11/12----------------|
A|------------------------9-----------------------------------------------------|
E|------------------------------------------------------------------------------|

DAS ENDE

************************************

| /   slide up
| \   slide down
| h   hammer-on
| p   pull-off
| ~   vibrato
| +   harmonic
| x   Mute note
| b   Bend
| pb  Pre-bend
| br  Bend release
| pbr Pre-bend release
| brb Bend release bend

************************************
            

comments powered by Disqus
↑ Back to top | Ra Tabs for Supernova. Lyrics for acoustic guitar and electric guitar. Tablatures and chords are parodies/interpretations of the original songs. You may use it for private study, scholarship, research or language learning purposes only