» » »

Fallen Rock Zone Bass tabs (ver.1)

Artists:  A B C D E F G H I J K L M N O P Q R S T U V W X Y Z # 

Fallen Rock Zone Bass tabs (ver.1)

Ra
Rating:
0/5 (0 votes)

Hard to play? Try these video lessons and learn fast.
                Tuning: ½ step down

Intro
|-------------------------------|
|--65h6p5/3--5-7-8---------/10--|
|------------3-5-6—3-5/8-3------|
|-------------------------------|

Chorus
|------------------5-|
|--------------3h5---|
|-3-33-43-3333-------|
|--------------------|

Verse1 2x
|------------------------6-------------------------5-|
|------------------------6-------------------------5-|
|-33333-33333-33333-333334-33333-33333-33333-33333-3-|
|----------------------------------------------------|    

Chorus 
Verse2 
Chorus 
Intro 

Bridge
|------------------------|
|---------------/10----3-|
|-3—5—6—3-5/8-3----3h5---|
|------------------------|

|----------------------------|
|----------------------------|
|-3—5—6—3-5/8-3-xx3-xx3-3333-|
|----------------------------|   

|-----------------------------|
|---------------/10-6-5h6p5/3-|
|-3—5—6—3-5/8-3---------------|
|-----------------------------|  

|----------------------------|
|----------------------------|
|-3—5—6—3-5/8-3-xx3-xx3-3333-|  
|----------------------------|

|------------------------6-------------------------5-|
|------------------------6-------------------------5-|
|-33333-33333-33333-333334-33333-33333-33333-33333-3-|
|----------------------------------------------------|    

|---------------------------6--------------------------------------|
|-----/10----/8-----/7------6-------/10------/9----/6--------------|
|3333----3333---3333---333334---3333----3333---3333---3333--3-3-3--|
|------------------------------------------------------------------| 

Chorus
            
Hard to play? Try these video lessons and learn fast. | Correct




comments powered by Disqus
↑ Back to top | Tablatures and chords are parodies/interpretations of the original songs. You may use it for private study, scholarship, research or language learning purposes only