» » »

Every Little Thing She Does Is Magic Tabs (ver.1)

Artists:  A B C D E F G H I J K L M N O P Q R S T U V W X Y Z # 

Every Little Thing She Does Is Magic Tabs (ver.1)

Ra
Rating:
3/5 (2 votes)

Hard to play? Try these video lessons and learn fast.
                (Intro)
Ihere is another awesome Ra song. the only guy i saw tab this messed it up a bit and 
it messy. i set it to advanced because of the speed of the pull-offs and hammers. only the 
Intro:                                                     | SIDE NOTES|

E|---------------------------------------5p3p0h3p0--|
B|---------5p3-------5p3-------5p3-2-2-2----------3-|
G|---0-0-0-----2-2-2-2-2-4-4-4-4-4------------------|   i know that the 4th
D|--------------------------------------------------|   fret is the same
A|--------------------------------------------------|   thing as an open B,
E|--------------------------------------------------|   but this is easier.
                                                        same with the 5th on
                                                        the B being the same
                                                        as the E.
Verse:

E|---------------------------------------|
B|---------------------------------------|
G|---------------------------------------|
D|---555-777-999-777--9--9--9------------|
A|---555-777-999-777--9--9--9------------|
E|---333-555-777-999-11-11-11------------|

E|---------------------------------------5p3p0h3p0------|
B|---------5p3-------5p3-------5p3-2-2-2----------3-----|
G|---0-0-0-0-0--2-2-2-2-2-4-4-4-4-4---------------------|
D|------------------------------------------------------|
A|------------------------------------------------------|
E|------------------------------------------------------|

E|------------------------------------------|
B|------------------------------------------|
G|------------------------------------------|
D|---555-777-999-777--9--9--9----13~--------|
A|---555-777-999-777--9--9--9----13~--------|
E|---333-555-777-999-11-11-11----11~--------|
            
Hard to play? Try these video lessons and learn fast. | Correct




comments powered by Disqus
↑ Back to top | Tablatures and chords are parodies/interpretations of the original songs. You may use it for private study, scholarship, research or language learning purposes only