» » »

Dont Turn Away Tabs (ver.1)

Artists:  A B C D E F G H I J K L M N O P Q R S T U V W X Y Z # 

Dont Turn Away Tabs (ver.1)

Ra
Rating:
0/5 (0 votes)

Hard to play? Try these video lessons and learn fast.
                RA - don't turn away


tuning:drop c

guitar 1:intro
|---------------------------------|-------------------------------|
|------10--------------10---------|------10--------------10-11----|
|---10----10---10---10----10---10-|---10----10---10---10-------10-|   (repeat 6x)
|-7----------7----7----------7----|-8----------8----8-------------|
|---------------------------------|-------------------------------|
|---------------------------------|-------------------------------|


guitar 2:
|----------------------------|-----------------------------|
|----------------------------|-----------------------------|
|----------------------------|-----------------------------|   (repeat 2x)
|-----0------3------5------8-|-----0------3------5---------|
|---0------3------5------8---|---0------3------5------8p7--|
|-0------3------5------8-----|-0------3------5------8------|


guitar 1:after intro
|-------------------------------|
|-------------------------------|
|--10---10--10------------------|  (repeat 4x)
|--x----x-0-x------5/8-8--8/7-7-|
|--8-00-8-0-8-0000-5/8-8--8/7-7-|
|----00---0---0000-5/8-8--8/7-7-|
pm   ..       ....               

guitar 2:after intro          
|-------------------------------|              
|-------------------------------|              
|--10---10--10------------------|  (repeat 3x) 
|--x----x-0-x------5/8-8--8/7-7-|              
|--8-00-8-0-8-0000-5/8-8--8/7-7-|              
|----00---0---0000-5/8-8--8/7-7-|              
pm   ..       ....               
guitar 1 & 2:pre-chorus
|------------------------------|
|------------------------------|
|------------------------------|   (repeat 4x)
|-0------3------3/5------5/8-8-|
|-0-0000-3-3333-3/5-5555-5/8-8-|
|-0-0000-3-3333-3/5-5555-5/8-8-|
pm  ....   ....     ....        

guitar 1 & 2:chorus
|---------------------------------------------------------|
|---------------------------------------------------------|
|-7------9------10-----12------------10101010-----7-7-7-7-|
|-x------x------x------x-------8-8--8-8-8-8--5-5--5-5-5-5-|
|-5-0000-7-0000-8-0000-10-0000-8-8--8-8-8-8--5-5--5-5-5-5-|
|---0000---0000---0000----0000-8-8--8-8-8-8--5-5--5-5-5-5-|
pm  ....   ....   ....    ....


guitar 1:
|---------------------------------------------|
|---------------------------------------------|
|---------------------------------------------|
|-8-8-8---8-8-8---8-8-8---8-8-8---10-10-10-/7-|
|-8-8-8---8-8-8---8-8-8---8-8-8---10-10-10-/7-|
|-8-8-8---8-8-8---8-8-8---8-8-8---10-10-10-/7-|


guitar 2:
|------------------------------------|------------------------|
|-14h15-14--14-----------------------|------------------------|
|---------15---15-14-15-14h15---15---|---9h10p7h10--9h10p7h10-|   (repeat 2x)
|-----------------------------17--17-|------------------------|
|------------------------------------|------------------------|
|------------------------------------|------------------------|


 It's a bit of a mess, but once you hear the song then
 you can figure out the pattern.
            
Hard to play? Try these video lessons and learn fast. | Correct




comments powered by Disqus
↑ Back to top | Tablatures and chords are parodies/interpretations of the original songs. You may use it for private study, scholarship, research or language learning purposes only