>
 >
 >
Broken Hearted Soul

Broken Hearted Soul Guitar Tabs

Ra - Broken Hearted Soul chords, tabs, tablatures, lyrics

Guitar lessons | Add/correct | Request | Top 50 tabs Artists:  A B C D E F G H I J K L M N O P Q R S T U V W X Y Z 0-9

Broken Hearted Soul Guitar Tabs – Ra

CD, Sheet music, Poster

Do you like Broken Hearted Soul? Share with your friends now
Tabs
----------------------------------------------------------------------------
                                   Ra
                            Broken Hearted Soul
----------------------------------------------------------------------------

Hello, thanks you for viewing my guitar tab for a sweet song. I love how it is like
rock like Submersed. Both are great bands! So if you donít know Submersed and you like this
I would suggest you check them out. Anyway, this is a fun song to play if you like 
and stuff like that. The intro is my favorite part of the song. Enjoy!


Username: dkm817 (same on X box live)


Guitar 1 Rhythmic (C G C F A D)
Guitar 2 Lead     (C G C F A D)
Guitar 3 Rhythmic (C G C F A D) Ė only for intro

Intro 1 (Acoustic)

Guitar 1
D------------------------------|
A-11~~~~-11~-10~-8-7~~~-7~-8~~-|
F------------x---x-x-------x---|
C------------x---x-x-------x---|
G-----10~~~~-9~~-6-5~-5~~~-6~~-|
C------------------------------|

Guitar 2
D-----8-10-11-10-8-10----8-----------------|
A-11~-----------------11---10-11~-10-8~~~~-|
F------------------------------------------|
C------------------------------------------|
G------------------------------------------|
C------------------------------------------|

Guitar 3
D------------------------------|
A------------------------------|
F------------------------------|
C------------------------------|
G------------------------------|
C------------------------------|


Guitar 1
D-----------------------------------|
A-11~~~~-11~-10~-8-7~-7-----8-7-----|
F-x----------x---x-x----7-------7---|
C-x----------x---x-x------0-------0-|
G-10~-10~~~~-9~~-6-5~---------------|
C-----------------------------------|

Guitar 2
D---------------------8-------------------|
A-8-10-11~~~~-8-10-11---10-11-8-10-11-10~-|
F-----------------------------------------|
C-----------------------------------------|
G-----------------------------------------|
C-----------------------------------------|

Guitar 3
D----8--10~~~----8-10-11-8-10----8--------|
A-10----------10--------------11---10~~~~-|
F-----------------------------------------|
C-----------------------------------------|
G-----------------------------------------|
C-----------------------------------------|

Guitar 1
D------------------------------|
A-11~~~~-11~-10~-8-7~~~-7~-8~~-|
F-x----------x---x-x-------x---|
C-x----------x---x-x-------x---|
G-10~-10~~~~-9~~-6-5~-5~~~-6~~-|
C------------------------------|

Guitar 2
D----------------------10-8-10-8----------------------------------|
A-11~---8~-11-10-13-10~-----------11-10-13-11-10----11-10---------|
F-----8------------------------------------------12-------12-10~~-|
C-----------------------------------------------------------------|
G-----------------------------------------------------------------|
C-----------------------------------------------------------------|

Guitar 3
D------------------------------|
A-11~~~~-11~-10~-8-7~~~-7~-8~~-|
F-x----------x---x-x-------x---|
C-x----------x---x-x-------x---|
G-10~-10~~~~-9~~-6-5~-5~~~-6~~-|
C------------------------------|

Guitar 1                |Distortion     |
D-----------------------|---------------|
A-11~~~~-11~-10~-8-7~~~-|---------------|
F-----------------------|---------------|
C-----------------------|5-x-5-x-5-x-5-x|
G-----------------------|5-x-5-x-5-x-5-x|
C-----------------------|5-x-5-x-5-x-5-x|

Guitar 2
D----------10~~~-8-10-11-13-11-10-11-13-14~~~~~~~~~~-|
A-10-11-13-------------------------------------------|
F----------------------------------------------------|
C----------------------------------------------------|
G----------------------------------------------------|
C----------------------------------------------------|

Guitar 3
D-----------------------------|
A-11~~~~-11~-10~-8-7~~~~~~~~~-|
F-x----------x---x-x----------|
C-x----------x---x-x----------|
G-10~-10~~~~-9~~-6-5~~~~~~~~~-|
C-----------------------------|

Intro 2

Guitar 1 x2
D---------------------------------------------------------------|
A---------------------------------------------------------------|
F---------------------------------------------------------------|
C-5-5-5-5-5-4-4-1-0-0-0-0-0-1-1-4-5-5-5-5-5-4-4-1-0-0-0-0-0-0-0-|
G-5-5-5-5-5-4-4-1-0-0-0-0-0-1-1-4-5-5-5-5-5-4-4-1-0-0-0-0-0-0-0-|
C-5-5-5-5-5-4-4-1-0-0-0-0-0-1-1-4-5-5-5-5-5-4-4-1-0-0-0-0-0-0-0-|
pm  . .   .   .     . .   .   .     . .   .   .     . . . . . .

Guitar 2 x2
D------------------------------------------------------------------------------|
A-11-11-11-11-11-10-10-8-7-7-7-7-7-8-8-10-11-11-11-11-11-10-10-8-7-7-7-7-7-7-7-|
F-12-12-12-12-12-11-11-8-7-7-7-7-7-8-8-11-12-12-12-12-12-11-11-8-7-7-7-7-7-7-7-|
C-12-12-12-12-12-11-11-8-7-7-7-7-7-8-8-11-12-12-12-12-12-11-11-8-7-7-7-7-7-7-7-|
G-10-10-10-10-10-9--9--6-5-5-5-5-5-6-6-9--10-10-10-10-10-9--9--6-5-5-5-5-5-5-5-|
C------------------------------------------------------------------------------|
pm   .  .     .     .      . .   .   .       .  .     .     .      . . . . . .

Verse

Guitar 1 x2
D---------------------------------------------------------------|
A---------------------------------------------------------------|
F---------------------------------------------------------------|
C-5-5-5-5-5-4-4-1-0-0-0-0-0-1-1-4-5-5-5-5-5-4-4-1-0-0-0-0-0-0-0-|
G-5-5-5-5-5-4-4-1-0-0-0-0-0-1-1-4-5-5-5-5-5-4-4-1-0-0-0-0-0-0-0-|
C-5-5-5-5-5-4-4-1-0-0-0-0-0-1-1-4-5-5-5-5-5-4-4-1-0-0-0-0-0-0-0-|
pm  . .   .   .     . .   .   .     . .   .   .     . . . . . .

Guitar 2 x2
D------------------------------------------------------------------------------|
A-11-11-11-11-11-10-10-8-7-7-7-7-7-8-8-10-11-11-11-11-11-10-10-8-7-7-7-7-7-7-7-|
F-12-12-12-12-12-11-11-8-7-7-7-7-7-8-8-11-12-12-12-12-12-11-11-8-7-7-7-7-7-7-7-|
C-12-12-12-12-12-11-11-8-7-7-7-7-7-8-8-11-12-12-12-12-12-11-11-8-7-7-7-7-7-7-7-|
G-10-10-10-10-10-9--9--6-5-5-5-5-5-6-6-9--10-10-10-10-10-9--9--6-5-5-5-5-5-5-5-|
C------------------------------------------------------------------------------|
pm   .  .     .     .      . .   .   .       .  .     .     .      . . . . . .

Pre Chorus

Guitar 1
D-----------------------------------------------------|
A-----------------------------------------------------|
F-5-5-5-5-5-5-5-5-5-5-5-5-8-8-8-8-8-8-8-8-14-14-14-14-|
C-5-5-5-5-5-5-5-5-5-5-5-5-8-8-8-8-8-8-8-8-14-14-14-14-|
G-3-3-3-3-3-3-3-3-3-3-3-3-6-6-6-6-6-6-6-6-12-12-12-12-|
C-----------------------------------------------------|

Guitar 2
D-----------------------------------------------------------------|
A-----------------------------------------------------------------|
F-8-8-8-8-8-8-8-8-10-10-10-10-12-12-12-12-12-12-12-12-14-14-14-14-|
C-x-x-x-x-x-x-x-x-x--x--x--x--x--x--x--x--x--x--x--x--x--x--x--x--|
G-6-6-6-6-6-6-6-6-8--8--8--8--10-10-10-10-10-10-10-10-12-12-12-12-|
C-----------------------------------------------------------------|

Chorus

Guitar 1
D---------------------------------------------------------------------------|
A---------------------------------------------------------------------------|
F-12-12-12-12-12-12-12-7-7-7-7-5-5-5-5-10-10-10-10-10-10-10-7-7-------------|
C-12-12-12-12-12-12-12-7-7-7-7-5-5-5-5-10-10-10-10-10-10-10-7-7-8-8-7-7-7-7-|
G-10-10-10-10-10-10-10-5-5-5-5-3-3-3-3-8--8--8--8--8--8--8--5-5-8-8-7-7-7-7-|
C---------------------------------------------------------------8-8-7-7-7-7-|

Guitar 2
D---------------------------------------------------------------------------|
A---------------------------------------------------------------------------|
F-12-12-12-12-12-12-12-8-8-8-8-8-8-8-8-10-10-10-10-10-10-10-7-7-7-7-7-7-7-7-|
C-x--x--x--x--x--x--x--x-x-x-x-x-x-x-x-x--x--x--x--x--x--x--x-x-x-x-x-x-x-x-|
G-10-10-10-10-10-10-10-6-6-6-6-6-6-6-6-8--8--8--8--8--8--8--5-5-5-5-5-5-5-5-|
C---------------------------------------------------------------------------|

Guitar 1
D-----------------------------------------------------------|
A-----------------------------------------------------------|
F-12-12-12-12-12-12-12-7-7-7-7-5-5-5-5-10-10-10-10-10-10-10-|
C-12-12-12-12-12-12-12-7-7-7-7-5-5-5-5-10-10-10-10-10-10-10-|
G-10-10-10-10-10-10-10-5-5-5-5-3-3-3-3-8--8--8--8--8--8--8--|
C-----------------------------------------------------------|

Guitar 2
D-----------------------------------------------------------|
A-----------------------------------------------------------|
F-12-12-12-12-12-12-12-8-8-8-8-8-8-8-8-10-10-10-10-10-10-10-|
C-x--x--x--x--x--x--x--x-x-x-x-x-x-x-x-x--x--x--x--x--x--x--|
G-10-10-10-10-10-10-10-6-6-6-6-6-6-6-6-8--8--8--8--8--8--8--|
C-----------------------------------------------------------|

Break Off

Guitar 1 x2
D---------------------------------------------------------------|
A---------------------------------------------------------------|
F---------------------------------------------------------------|
C-5-5-5-5-5-4-4-1-0-0-0-0-0-1-1-4-5-5-5-5-5-4-4-1-0-0-0-0-0-0-0-|
G-5-5-5-5-5-4-4-1-0-0-0-0-0-1-1-4-5-5-5-5-5-4-4-1-0-0-0-0-0-0-0-|
C-5-5-5-5-5-4-4-1-0-0-0-0-0-1-1-4-5-5-5-5-5-4-4-1-0-0-0-0-0-0-0-|
pm  . .   .   .     . .   .   .     . .   .   .     . . . . . .

Guitar 2
D-----------------------------------------------------------------|
A-8-8-8-8-8-8-8-8-10-10-10-10-10-10-10-10-11-11-11-11-11-11-11-11-|
F-x-x-x-x-x-x-x-x-x--x--x--x--x--x--x--x--x--x--x--x--x--x--x--x--|
C-5-5-5-5-5-5-5-5-7--7--7--7--7--7--7--7--8--8--8--8--8--8--8--8--|
G-----------------------------------------------------------------|
C-----------------------------------------------------------------|

Guitar 2 continued
D-----------------------------------------------------------------|
A-13-13-13-13-16-16-16-16-15-15-15-15-15-15-15-15-9-9-9-9-9-9-9-9-|
F-x--x--x--x--x--x--x--x--x--x--x--x--x--x--x--x--x-x-x-x-x-x-x-x-|
C-10-10-10-10-13-13-13-13-12-12-12-12-12-12-12-12-6-6-6-6-6-6-6-6-|
G-----------------------------------------------------------------|
C-----------------------------------------------------------------|

Guitar 2 continued
D---------------------------------|
A-8-8-8-8-8-8-8-8-----------------|
F-x-x-x-x-x-x-x-x-7-7-7-7-7-7-7-7-|
C-5-5-5-5-5-5-5-5-x-x-x-x-x-x-x-x-|
G-----------------5-5-5-5-5-5-5-5-|
C---------------------------------|

Verse

Guitar 1 x2
D---------------------------------------------------------------|
A---------------------------------------------------------------|
F---------------------------------------------------------------|
C-5-5-5-5-5-4-4-1-0-0-0-0-0-1-1-4-5-5-5-5-5-4-4-1-0-0-0-0-0-0-0-|
G-5-5-5-5-5-4-4-1-0-0-0-0-0-1-1-4-5-5-5-5-5-4-4-1-0-0-0-0-0-0-0-|
C-5-5-5-5-5-4-4-1-0-0-0-0-0-1-1-4-5-5-5-5-5-4-4-1-0-0-0-0-0-0-0-|
pm  . .   .   .     . .   .   .     . .   .   .     . . . . . .

Guitar 2 x2
D------------------------------------------------------------------------------|
A-11-11-11-11-11-10-10-8-7-7-7-7-7-8-8-10-11-11-11-11-11-10-10-8-7-7-7-7-7-7-7-|
F-12-12-12-12-12-11-11-8-7-7-7-7-7-8-8-11-12-12-12-12-12-11-11-8-7-7-7-7-7-7-7-|
C-12-12-12-12-12-11-11-8-7-7-7-7-7-8-8-11-12-12-12-12-12-11-11-8-7-7-7-7-7-7-7-|
G-10-10-10-10-10-9--9--6-5-5-5-5-5-6-6-9--10-10-10-10-10-9--9--6-5-5-5-5-5-5-5-|
C------------------------------------------------------------------------------|
pm   .  .     .     .      . .   .   .       .  .     .     .      . . . . . .

Pre Chorus

Guitar 1
D-----------------------------------------------------|
A-----------------------------------------------------|
F-5-5-5-5-5-5-5-5-5-5-5-5-8-8-8-8-8-8-8-8-14-14-14-14-|
C-5-5-5-5-5-5-5-5-5-5-5-5-8-8-8-8-8-8-8-8-14-14-14-14-|
G-3-3-3-3-3-3-3-3-3-3-3-3-6-6-6-6-6-6-6-6-12-12-12-12-|
C-----------------------------------------------------|

Guitar 2
D-----------------------------------------------------------------|
A-----------------------------------------------------------------|
F-8-8-8-8-8-8-8-8-10-10-10-10-12-12-12-12-12-12-12-12-14-14-14-14-|
C-x-x-x-x-x-x-x-x-x--x--x--x--x--x--x--x--x--x--x--x--x--x--x--x--|
G-6-6-6-6-6-6-6-6-8--8--8--8--10-10-10-10-10-10-10-10-12-12-12-12-|
C-----------------------------------------------------------------|

Chorus

Guitar 1 x2
D---------------------------------------------------------------------------|
A---------------------------------------------------------------------------|
F-12-12-12-12-12-12-12-7-7-7-7-5-5-5-5-10-10-10-10-10-10-10-7-7-------------|
C-12-12-12-12-12-12-12-7-7-7-7-5-5-5-5-10-10-10-10-10-10-10-7-7-8-8-7-7-7-7-|
G-10-10-10-10-10-10-10-5-5-5-5-3-3-3-3-8--8--8--8--8--8--8--5-5-8-8-7-7-7-7-|
C---------------------------------------------------------------8-8-7-7-7-7-|

Guitar 2 x2
D---------------------------------------------------------------------------|
A---------------------------------------------------------------------------|
F-12-12-12-12-12-12-12-8-8-8-8-8-8-8-8-10-10-10-10-10-10-10-7-7-7-7-7-7-7-7-|
C-x--x--x--x--x--x--x--x-x-x-x-x-x-x-x-x--x--x--x--x--x--x--x-x-x-x-x-x-x-x-|
G-10-10-10-10-10-10-10-6-6-6-6-6-6-6-6-8--8--8--8--8--8--8--5-5-5-5-5-5-5-5-|
C---------------------------------------------------------------------------|


Bridge 1 (Acoustic again)

Guitar 1 x8
D-3-3-3-3-3-3-3-3-3-3-3-3-3-3-3-3-|
A-3-3-3-3-3-3-3-3-3-3-3-3-3-3-3-3-|
F-3-3-3-3-3-3-3-3-5-5-5-5-5-5-5-5-|
C-3-3-3-3-3-3-3-3-5-5-5-5-5-5-5-5-|
G-1-1-1-1-1-1-1-1-3-3-3-3-3-3-3-3-|
C---------------------------------|

Guitar 2 x4
D-13-11-10----11-10-------10-------------------------------------|
A----------13-------13-11----13-11-10-13-11-10----11-10----------|
F----------------------------------------------12-------12-10-12-|
C----------------------------------------------------------------|
G----------------------------------------------------------------|
C----------------------------------------------------------------|

Guitar 2 continued
D-------------------10-------10-11-|
A-10-11-13-10-11-13----11-13-------|
F----------------------------------|
C----------------------------------|
G----------------------------------|
C----------------------------------|

Guitar 3
D-----------------------------------------------------------------|
A-15-13-11----13-11-------11----------------------------------11~-|
F----------14-------14-12----14-12-10-12-10-----------------------|
C-------------------------------------------12-13-10~-12~-13~-----|
G-----------------------------------------------------------------|
C-----------------------------------------------------------------|

Bridge 2

Guitar 1 & 2 x2
D-----------------------------------------------------------------|
A-8-8-8-8-8-8-8-8-10-10-10-10-10-10-10-10-11-11-11-11-11-11-11-11-|
F-x-x-x-x-x-x-x-x-x--x--x--x--x--x--x--x--x--x--x--x--x--x--x--x--|
C-5-5-5-5-5-5-5-5-7--7--7--7--7--7--7--7--8--8--8--8--8--8--8--8--|
G-----------------------------------------------------------------|
C-----------------------------------------------------------------|

Guitar 1 & 2 continued
D-------------------------|
A-13-13-13-13-16-16-16-16-|
F-x--x--x--x--x--x--x--x--|
C-10-10-10-10-13-13-13-13-|
G-------------------------|
C-------------------------|

Pre Chorus

Guitar 1
D-----------------------------------------------------|
A-----------------------------------------------------|
F-5-5-5-5-5-5-5-5-5-5-5-5-8-8-8-8-8-8-8-8-14-14-14-14-|
C-5-5-5-5-5-5-5-5-5-5-5-5-8-8-8-8-8-8-8-8-14-14-14-14-|
G-3-3-3-3-3-3-3-3-3-3-3-3-6-6-6-6-6-6-6-6-12-12-12-12-|
C-----------------------------------------------------|

Guitar 2
D-----------------------------------------------------------------|
A-----------------------------------------------------------------|
F-8-8-8-8-8-8-8-8-10-10-10-10-12-12-12-12-12-12-12-12-14-14-14-14-|
C-x-x-x-x-x-x-x-x-x--x--x--x--x--x--x--x--x--x--x--x--x--x--x--x--|
G-6-6-6-6-6-6-6-6-8--8--8--8--10-10-10-10-10-10-10-10-12-12-12-12-|
C-----------------------------------------------------------------|

Chorus

Guitar 1 x2
D---------------------------------------------------------------------------|
A---------------------------------------------------------------------------|
F-12-12-12-12-12-12-12-7-7-7-7-5-5-5-5-10-10-10-10-10-10-10-7-7-------------|
C-12-12-12-12-12-12-12-7-7-7-7-5-5-5-5-10-10-10-10-10-10-10-7-7-8-8-7-7-7-7-|
G-10-10-10-10-10-10-10-5-5-5-5-3-3-3-3-8--8--8--8--8--8--8--5-5-8-8-7-7-7-7-|
C---------------------------------------------------------------8-8-7-7-7-7-|

Guitar 2 x2
D---------------------------------------------------------------------------|
A---------------------------------------------------------------------------|
F-12-12-12-12-12-12-12-8-8-8-8-8-8-8-8-10-10-10-10-10-10-10-7-7-7-7-7-7-7-7-|
C-x--x--x--x--x--x--x--x-x-x-x-x-x-x-x-x--x--x--x--x--x--x--x-x-x-x-x-x-x-x-|
G-10-10-10-10-10-10-10-6-6-6-6-6-6-6-6-8--8--8--8--8--8--8--5-5-5-5-5-5-5-5-|
C---------------------------------------------------------------------------|

Guitar 1
D---------------------------------------------------------------------------|
A---------------------------------------------------------------------------|
F-12-12-12-12-12-12-12-7-7-7-7-5-5-5-5-10-10-10-10-10-10-10-7-7-------------|
C-12-12-12-12-12-12-12-7-7-7-7-5-5-5-5-10-10-10-10-10-10-10-7-7-8-8-7-7-7-7-|
G-10-10-10-10-10-10-10-5-5-5-5-3-3-3-3-8--8--8--8--8--8--8--5-5-8-8-7-7-7-7-|
C---------------------------------------------------------------8-8-7-7-7-7-|

Guitar 2
D---------------------------------------------------------------------------|
A---------------------------------------------------------------------------|
F-12-12-12-12-12-12-12-8-8-8-8-8-8-8-8-10-10-10-10-10-10-10-7-7-7-7-7-7-7-7-|
C-x--x--x--x--x--x--x--x-x-x-x-x-x-x-x-x--x--x--x--x--x--x--x-x-x-x-x-x-x-x-|
G-10-10-10-10-10-10-10-6-6-6-6-6-6-6-6-8--8--8--8--8--8--8--5-5-5-5-5-5-5-5-|
C---------------------------------------------------------------------------|

Guitar 1
D-----------------------------------------------------------------|
A-----------------------------------------------------------------|
F-12-12-12-12-12-12-12-7-7-7-7-5-5-5-5-10-10-10-10-10-10-10-------|
C-12-12-12-12-12-12-12-7-7-7-7-5-5-5-5-10-10-10-10-10-10-10-------|
G-10-10-10-10-10-10-10-5-5-5-5-3-3-3-3-8--8--8--8--8--8--8--------|
C-----------------------------------------------------------------|

Guitar 2                                                  BROKEN HEARTED SOUL
D-----------------------------------------------------------------|
A-----------------------------------------------------------------|
F-12-12-12-12-12-12-12-8-8-8-8-8-8-8-8-10-10-10-10-10-10-10-------|
C-x--x--x--x--x--x--x--x-x-x-x-x-x-x-x-x--x--x--x--x--x--x--------|
G-10-10-10-10-10-10-10-6-6-6-6-6-6-6-6-8--8--8--8--8--8--8--------|
C-----------------------------------------------------------------|


Tab Legend
h  -  hammer-on
p  -  pull-off
/  -  slide up
\  -  slide down
ps/-  pickslide up
ps\-  pickslide down
~  -  let ring
pm.-  palm mute
b  -  bend
r  -  return from bend
*  -  harmonic
x  -  dead note

Well there you go, if there are any parts I accidentally left out or didnít do right
tell me or make a better one. Oh and one last thing... ROCK OUT!!!!





Comments


Popular Ra tabs & chords
Do You Call My Name Chords
I Believe Again Chords
Supernova Chords
Do You Call My Name (Intro Ver 2) Tabs
Do You Call My Name 3 Tabs
Do You Call My Name? 1 Tabs
On My Side 1 Tabs
Rectifier Tabs
Tell Me Intro Tabs
Say You Will Ukulele


Song lyrics



↑ Back to top | Tablatures and chords are parodies/interpretations of the original songs. You may use it for private study, scholarship, research or language learning purposes only
© 2014 AZChords.com Contact us | Privacy policy | DMCA | Add/correct tabs | Request tabs | Top 50 tabs