>
 >
Point Of No Return

Point Of No Return Guitar Tabs

Quo Vadis - Point Of No Return chords, tabs, tablatures, lyrics

Guitar lessons | Add/correct | Request | Top 50 tabs Artists:  A B C D E F G H I J K L M N O P Q R S T U V W X Y Z 0-9

Point Of No Return Guitar Tabs – Quo Vadis

CD, Sheet music, Poster

Do you like Point Of No Return? Share with your friends now
Tabs
                      QUO VADIS - POINT OF NO RETURN - Mute Requiem

                          From "Day Into Night"



For Questions, Comments, Corrections, Requests

Check out The Reaper's Metal Tablature Archive at

.  - palm mute                          /  - slide up to
\  - slide down to                      ~  - vibrato
"  - tremelo picking                    () - ghost note
p  - pull off                           h  - hammer-on
tr - trill notes                        fb - full bend (1step)
< > - natural harmonic

Quo Vadis - Point of No Return

Tuned to E (EADGBE)

Riff A
|----------------------------------------|
|----------------------------------------|
|----------------------------------------|Both Gtrs
|-----4h5p4-------4h5p4------------------|
|-----------7-----------7----------------|
|-000---------000---------000-000--------|
  ...         ...         ... ...

|----------------------------------------|
|----------------------------------------|
|----------------------------------------|Both Gtrs
|-----4h7p4------------------------------|
|-----------6-----3h6p3\2---3p2p0--------|
|-000---------000-----------------3p0----|
  ...         ...

Riff A - 6x

Small Note:  After the singer screams, you can hear a very quiet
             third guitar harmonising in fifths.

Fill
|---|
|---|
|---|Both Gtrs
|---|
|-2-|
|-0-|

Drum fill, then

Riff B1
|----------------------------------------|
|----------------------------------------|
|----------------------------------------|Both Gtrs
|--------9-------------------------------|
|-10-777---777-10p9-9-999-9-999-9-9------|
|----------------------------------------|
     ...   ...        ...   ...   .

|----------------------------------------|
|----------------------------------------|
|----------------------------------------|
|-7-----7-----4h5p4----------------------|
|---555---555-------7--------------------|
|---------------------000-0-000-000------|
    ...   ...         ... . ... ...

Riff B1 - 2x

Riff B2
|----------------------------------------|
|----------------------------------------|
|----------------------------------------|Both Gtrs
|-5-----5-----5h7h9-4-----4-----4h5h7----|
|----------------------------------------|
|---000---000---------000---000----------|
    ...   ...         ...   ...

|----------------------------------------|
|----------------------------------------|
|----------------------------------------|Both Gtrs
|-7-----7-----4h5p4--------------7h9-----|
|---555---555-------7---------10---------|
|---------------------000-0-0------------|
    ...   ...         ... . .

Riff B2 - 1x

Riff B3
|----------------------------------------|
|----------------------------------------|
|----------------------------------------|Both Gtrs
|-5-----5-----5h7h9-4-----4-----4h5h7----|
|----------------------------------------|
|---000---000---------000---000----------|
|   ...   ...         ...   ...          |
|----------------------------------------|
|----------------------------------------|
|----------------------------------------|Gtr III
|-9-----9-----5h7h9-7-----7-----4h5h7----|
|----------------------------------------|
|---000---000---------000---000----------|
    ...   ...         ...   ...


|----------------------------------------|
|----------------------------------------|
|----------------------------------------|Gtrs I
|-7-----7-----7--------------------------|  & II
|---555---555----------------------------|
|----------------------------------------|
|   ...   ...                            |
|----------------------------------------|
|----------------------------------------|
|----------------------------------------|Gtr II
|-7-----7-----7--------------------------|
|---555---555----------------------------|
|----------------------------------------|
    ...   ...

|----------------------------------------|
|----------------------------------------|
|----------------------------------------|Gtrs I
|-------4-----4---2-----4-----4----------|  & II
|-22222---222---2---222---222---2--------|
|----------------------------------------|
| .....   ...   .   ...   ...   .        |
|----------------------------------------|
|----------------------------------------|
|-------2-----2---0-----2-----2----------|Gtr III
|----------------------------------------|
|-22222---222---2---222---222---2--------|
|----------------------------------------|
  .....   ...   .   ...   ...   .

Riff B3 - 1x

Riff C1
|----------------------------------------|
|----------------------------------------|
|----------------------------------------|Both Gtrs
|-5-----5-----4h5p4-5-----5-----4h5p4----|
|----------------------------------------|
|---000---000---------000---000----------|
    ...   ...         ...   ...

|----------------------------------------|
|----------------------------------------|
|-----------------------------------7----|Both Gtrs
|-7-----7-----7h10p9-4----5-7-4h5h7------|
|----------------------------------------|
|---000---000---------000----------------|
    ...   ...         ...


|----------------------------------------|
|----------------------------------------|
|----------------------------------------|Both Gtrs
|-5-----5-----4h5p4-5-----5-----4h5p4----|
|----------------------------------------|
|---000---000---------000---000----------|
    ...   ...         ...   ...


|----------------------------------------|
|----------------------------------------|
|----------------------------------------|Both Gtrs
|-7-----7-----7---4-----5-----4----------|
|----------------------------------------|
|---000---000---0---000---000------------|
    ...   ...   .   ...   ...

Riff C1 - 1x

Riff C2
|----------------------------------------|
|----------------------------------------|
|----------------------------------------|Gtrs I
|-5-----5-----4h5p4-5-----5-----4h5p4----|  & II
|----------------------------------------|
|---0-0---0-0---------0-0---0-0----------|
|   . .   . .         . .   . .          |
|----------------------------------------|
|----------------------------------------|
|----------------------------------------|Gtr III
|----------------------------------------|
|-2-----------------5--------------------|
|-0-----------------3--------------------|


|----------------------------------------|
|----------------------------------------|
|----------------------------------------|Gtrs I
|-7-----7-----7----4-4-4-5-----4h5-------|  & II
|----------------------------------------|
|---0-0---0-0---0------------------------|
|   . .   . .   .    . .                 |
|----------------------------------------|
|----------------------------------------|
|----------------------------------------|Gtr III
|-7--------------------------------------|
|-5----------------5-5-5-7-----5h7-------|
|-5--------------------------------------|
                     . .

Riff C2 - 1x

Riff C3
|----------------------------------------|
|----------------------------------------|
|----------------------------------------|Gtr I
|-------5-----4h5-------------5h7--------|
|-7---------------5-----5----------------|
|---0-0---0-0-----3-3-3-3-3-3------------|
|   . .   . .       . .   . .            |
|----------------------------------------|
|----------------------------------------|
|-------4-----2h4------------------------|Gtr II
|-5---------------5-----5-----9p7--------|
|----------------------------------------|
|---0-0---0-0-------3-3---3-3------------|
    . .   . .       . .   . .

|----------------------------------------|
|----------------------------------------|
|----------------------------------------|Gtr I
|-7-----7-----7---4-----5-----4----------|
|---555---5-5---5---555---555------------|
|----------------------------------------|
|   ...   . .   .   ...   ...            |
|----------------------------------------|
|----------------------------------------|
|----------------------------------------|Gtr II
|-7-----7-----7---4-----5-----4----------|
|---555---5-5---5---555---555------------|
|----------------------------------------|
    ...   . .   .   ...   ...

Riff D1
|----------------------------------------|
|----------------------------------------|
|----------------------------------------|Both Gtrs
|----------------------------------------|
|---------2-----------2-------2----------|
|-000000000---000000000---00000----------|
  ........    ........    ....

|----------------------------------------|
|----------------------------------------|
|----------------------------------------|Both Gtrs
|----------------------------------------|
|-----3---------3-3-0h2p0----------------|
|-00001---------1-1----------------------|
  ....

Riff D1 - 2x

Riff D2
|----------------------------------------|
|----------------------------------------|
|----------------------------------------|Both Gtrs
|---------5-----------5-------5----------|
|---------7-----------7-------7----------|
|-0000000-----0000000-----000------------|
  .......     .......     ...

|----------------------------------------|
|----------------------------------------|
|----------------------------------------|Both Gtrs
|---------2---4-4-5h7-3~-----------------|
|---------3---5-5------------------------|
|-0000000--------------------------------|
  .......

|----------------------------------------|
|----------------------------------------|
|----------------------------------------|Both Gtrs
|---------5-----------5-------5----------|
|---------7-----------7-------7----------|
|-0000000-----0000000-----000------------|
  .......     .......     ...

|----------------------------------------|
|----------------------------------------|
|----------------------------------------|Both Gtrs
|---------2---4-4-5/7-7------------------|
|---------3---5-5-7/9-9------------------|
|-0000000--------------------------------|
  .......

Riff D2 - 1x
Riff D1 - 2x
Riff D2 - 1x
Riff B1 - 2x
Riff B2 - 1x
Riff B3 - 1x
Riff A1 - 1x

Riff A2
|----------------------------------------|
|----------------------------------------|
|----------------------------------------|Gtrs I
|-----5p4-------5p4----------------------|  & II
|---------7---------7--------------------|
|-000-------000-------000-000------------|
| ...       ...       ... ...            |
|----------------------------------------|
|----------------------------------------|
|-----4p2-------4h5p4--------------------|Gtr III
|---------5------------------------------|
|----------------------------------------|
|-000-------000-------000-000------------|
  ...       ...       ... ...

|----------------------------------------|
|----------------------------------------|
|----------------------------------------|Gtrs I
|-----7h4--------------------------------|  & II
|---------6-----3h6p3\2---3p2p0----------|
|-000-------000-----------------3p0------|
| ...       ...                          |
|----------------------------------------|
|----------------------------------------|
|-----5p2--------------------------------|Gtr III
|---------4------------------------------|
|---------------3h6p3/2---3p2p0----------|
|-000-------000-----------------3p0------|
  ...       ...

Riff A2 - 1x
Riff A1 - 1x
Riff A2 - 1x

Riff C4
|----------------------------------------|
|----------------------------------------|
|----------------------------------------|Both Gtrs
|----------------7----4-4-4-5---4h5------|
|-2------5-------5----5-5-5-7---5h7------|
|-0------3-------5-----------------------|
                      . . .

Riff C4 - 1x
Riff C3 - 1x
Riff C4 - 1x
Riff C3 - 1x

Fill
|---|
|---|
|---|Both Gtrs
|-5-|
|-7-|
|---|

Riff D2 - 2x

Fill
|----------------------------------------|
|----------------------------------------|
|----------------------------------------|Both Gtrs
|----------------------------------------|
|-7tr8-----------------------------------|
|----------------------------------------|


|----------------------------------------|
|----------------------------------------|
|----------------------------------------|Both Gtrs
|----------------------------------------|
|-2-2-2-2-2-2-2-2-2-2-2-2-2-2-2-2--------|
|-0-0-0-0-0-0-0-0-0-0-0-0-0-0-0-0--------|
  . . . . . . . . . . . . . . . .

Riff E
|----------------------------------------|
|----------------------------------------|
|----------------------------------------|Both Gtrs
|-----------------5-------5-----4--------|
|-2-2-2-2-2---------7--------------------|
|-0-0-0-0-0-------------0-----0----------|
  . . . .

|----------------------------------------|
|----------------------------------------|
|----------------------------------------|Both Gtrs
|---4h5p4---------4-------5-----4--------|
|---------7-2---2---2---2-2---2-2--------|
|-0--------------------------------------|
  .             .       .     .

|----------------------------------------|
|----------------------------------------|
|----------------------------------------|Both Gtrs
|---4h5----------------------------------|
|-2--------------------------------------|
|----------------------------------------|
  .

Riff E - 2x

Riff F
|----------------------------------------|
|----------------------------------------|
|-----4-5-------4-5-------5-7-------5-7--|Both Gtrs
|----------------------------------------|
|-0-0-------0-0-------0-0-------0-0------|
|----------------------------------------|
  . .       . .       . .       . .

|----------------------------------------|
|----------------------------------------|
|-----5-4-------5-4-------4--------------|Both Gtrs
|---------------------------5------------|
|-7-7-------7-7-------7-7----------------|
|-0-0-------0-0-------0-0----------------|
  . .       . .       . .

|----------------------------------------|
|----------------------------------------|
|-4---4-5--------------------------------|Both Gtrs
|---5------------------------------------|
|----------------------------------------|
|----------------------------------------|

Riff F - 2x (under solo)

Riff G1
|----------------------------------------|
|----------------------------------------|
|-2-4-5-2-4-5-2-4-5-2-4-5----------------|Gtrs I
|----------------------------------------|  & II
|----------------------------------------|
|----------------------------------------|
| . . . . . . . . . . . .                |
|-12-------------------------------------|
|----------------------------------------|
|-9--------------------------------------|Gtr III
|----------------------------------------|
|----------------------------------------|
|----------------------------------------|


|----------------------------------------|
|----------------------------------------|
|-4-5-7-4-5-7-4-5-7-4-5-7----------------|Gtrs I
|----------------------------------------|  & II
|----------------------------------------|
|----------------------------------------|
| . . . . . . . . . . . .                |
|----------------------------------------|
|-10-------------------------------------|
|-10-------------------------------------|Gtr III
|----------------------------------------|
|----------------------------------------|
|----------------------------------------|


|----------------------------------------|
|----------------------------------------|
|-0-2-4-0-2-4-0-2-4-0-2-4----------------|Gtrs I
|----------------------------------------|  & II
|----------------------------------------|
|----------------------------------------|
| . . . . . . . . . . . .                |
|-10-------------------------------------|
|----------------------------------------|
|-7--------------------------------------|Gtr III
|----------------------------------------|
|----------------------------------------|
|----------------------------------------|


|----------------------------------------|
|----------------------------------------|
|-0-2-4-0-2-4-0-2-4-5-4-2----------------|Gtrs I
|----------------------------------------|  & II
|----------------------------------------|
|----------------------------------------|
| . . . . . . . . . . . .                |
|----------------------------------------|
|----------------------------------------|
|-9--------------------------------------|Gtr III
|----------------------------------------|
|-7--------------------------------------|
|----------------------------------------|


|----------------------------------------|
|----------------------------------------|
|-2-4-5-2-4-5-2-4-5-2-4-5----------------|Gtrs I
|----------------------------------------|  & II
|----------------------------------------|
|----------------------------------------|
| . . . . . . . . . . . .                |
|-12-------------------------------------|
|----------------------------------------|
|-9--------------------------------------|Gtr III
|----------------------------------------|
|----------------------------------------|
|----------------------------------------|


|----------------------------------------|
|----------------------------------------|
|-4-5-7-4-5-7-4-5-7-4-5-7----------------|Gtrs I
|----------------------------------------|  & II
|----------------------------------------|
|----------------------------------------|
| . . . . . . . . . . . .                |
|----------------------------------------|
|-10-------------------------------------|
|----------------------------------------|Gtr III
|-7--------------------------------------|
|----------------------------------------|
|----------------------------------------|


|----------------------------------------|
|----------------------------------------|
|-0-2-4-0-2-4-0-2-4-0-2-4----------------|Gtrs I
|----------------------------------------|  & II
|----------------------------------------|
|----------------------------------------|
| . . . . . . . . . . . .                |
|-10-------------------------------------|
|----------------------------------------|
|-7--------------------------------------|Gtr III
|----------------------------------------|
|----------------------------------------|
|----------------------------------------|


|----------------------------------------|
|----------------------------------------|
|-0-2-4-0-2-4-0-2-4-5-4-2----------------|Gtrs I
|----------------------------------------|  & II
|----------------------------------------|
|----------------------------------------|
| . . . . . . . . . . . .                |
|-------------13---10--------------------|
|----------------------------------------|
|-------------10---7---------------------|Gtr III
|----------------------------------------|
|----------------------------------------|
|----------------------------------------|

Riff G1 - 1x

Riff G2
|----------------------------------------|
|----------------------------------------|
|-2-4-5-2-4-5-2-4-5-2-4-5----------------|Gtr I
|----------------------------------------|
|----------------------------------------|
|----------------------------------------|
| . . . . . . . . . . . .                |
|----------------------------------------|
|-1-3-5-1-3-5-1-3-5-1-3-5----------------|
|----------------------------------------|Gtr II
|----------------------------------------|
|----------------------------------------|
|----------------------------------------|
| . . . . . . . . . . . .                |
|-12-------------------------------------|
|----------------------------------------|
|-9--------------------------------------|Gtr III
|----------------------------------------|
|----------------------------------------|
|----------------------------------------|



|----------------------------------------|
|----------------------------------------|
|-4-5-7-4-5-7-4-5-7-4-5-7----------------|Gtr I
|----------------------------------------|
|----------------------------------------|
|----------------------------------------|
| . . . . . . . . . . . .                |
|----------------------------------------|
|-3-5-6-3-5-6-3-5-6-3-5-6----------------|
|----------------------------------------|Gtr II
|----------------------------------------|
|----------------------------------------|
|----------------------------------------|
| . . . . . . . . . . . .                |
|----------------------------------------|
|-10-------------------------------------|
|-10-------------------------------------|Gtr III
|----------------------------------------|
|----------------------------------------|
|----------------------------------------|



|----------------------------------------|
|----------------------------------------|
|-0-2-4-0-2-4-0-2-4-0-2-4----------------|Gtr I
|----------------------------------------|
|----------------------------------------|
|----------------------------------------|
| . . . . . . . . . . . .                |
|----------------------------------------|
|----------------------------------------|
|-4-5-7-4-5-7-4-5-7-4-5-7----------------|Gtr II
|----------------------------------------|
|----------------------------------------|
|----------------------------------------|
| . . . . . . . . . . . .                |
|-10-------------------------------------|
|----------------------------------------|
|-7--------------------------------------|Gtr III
|----------------------------------------|
|----------------------------------------|
|----------------------------------------|



|----------------------------------------|
|----------------------------------------|
|-0-2-4-0-2-4-0-2-4-5-4-2----------------|Gtr I
|----------------------------------------|
|----------------------------------------|
|----------------------------------------|
| . . . . . . . . . . . .                |
|----------------------------------------|
|-------------------5--------------------|
|-4-5-7-4-5-7-4-5-7---7-5----------------|Gtr II
|----------------------------------------|
|----------------------------------------|
|----------------------------------------|
| . . . . . . . . . . . .                |
|----------------------------------------|
|----------------------------------------|
|-9--------------------------------------|Gtr III
|----------------------------------------|
|-7--------------------------------------|
|----------------------------------------|


Fade out with Riff G2





Comments


Popular Quo Vadis tabs & chords
Deadmans Diary Bass Tabs
Silence Calls The Storm Bass Tabs
Silence Calls The Storm 2 Bass Tabs
Cadences Of Absonance Tabs
Dream Tabs
Night Of The Roses Tabs
On The Shores Of Ithaka Tabs
Point Of No Return Pt I - Mute Requiem Tabs
Rasputin Tabs
Silence Calls The Storm Tabs


Song lyrics



↑ Back to top | Tablatures and chords are parodies/interpretations of the original songs. You may use it for private study, scholarship, research or language learning purposes only
© 2014 AZChords.com Contact us | Privacy policy | DMCA | Add/correct tabs | Request tabs | Top 50 tabs