>
 >
On The Shores Of Ithaka

On The Shores Of Ithaka Guitar Tabs

Quo Vadis - On The Shores Of Ithaka chords, tabs, tablatures, lyrics

Guitar lessons | Add/correct | Request | Top 50 tabs Artists:  A B C D E F G H I J K L M N O P Q R S T U V W X Y Z 0-9

On The Shores Of Ithaka Guitar Tabs – Quo Vadis

CD, Sheet music, Poster

Do you like On The Shores Of Ithaka? Share with your friends now
Tabs
/---------------------------------------------------------------------------/
/    The following is the author's own interpretation of the song, to be    /
/                     used for private use and studying                     /
/---------------------------------------------------------------------------/
                   QUO VADIS - ON THE SHORES OF ITHAKA
                          From "Day Into Night"             
  


For Questions, Comments, Corrections, Requests

Check out The Reaper's Metal Tablature Archive at

.  - palm mute                          /  - slide up to
\  - slide down to                      ~  - vibrato
"  - tremelo picking                    () - ghost note
p  - pull off                           h  - hammer-on 
tr - trill notes                        fb - full bend (1step)
< > - natural harmonic

Quo Vadis - On the Shores of Ithaka (Part 1)

Tuned 1 step down to D (DGCFAD)

**This was too big to fit into notepad, so I divided it into two parts.**

--If you want the timing (especially for the solo), I suggest-- 
--getting the Powertab version that I made.  It's at my site.--

Riff A1
|----------------------------------------|
|----------------------------------------|
|----------------------------------------|Gtr I
|----------------------------------------|
|-2-3-5-3---2-3-2-2----------------------|
|-0-1-3-1---0-1-0-0----------------------|
  . . .     . . .

Riff A1 - 2x

Riff A2
|----------------------------------------|
|----------------------------------------|
|----------------------------------------|Gtr I
|----------------------------------------|
|-2-3--5--3---2-3--2-2-------------------|
|-0-1--3--1---0-1--0-0-------------------|
| . .  .      . .  .                     |
|----------------------------------------|
|----------------------------------------|
|-9-10-12-10-------9-9-------------------|Gtr II
|-------------7-10-----------------------|
|----------------------------------------|
|----------------------------------------|


|----------------------------------------|
|----------------------------------------|
|----------------------------------------|Gtr I
|----------------------------------------|
|-2-2-2-2-2-2-2-2-2-2-5--5--2------------|
|-0-0-0-0-0-0-0-0-0-0-3--3--0------------|
|                                        |
|----------------------------------------|
|------------------------12--------------|
|---------------------12----9~-----------|Gtr II
|-------------------9--------------------|
|----------------------------------------|
|----------------------------------------|


|----------------------------------------|
|----------------------------------------|
|----------------------------------------|Gtr I
|-7-7-7-7--------------------------------|
|-5-5-5-5-2-2-2-2-2-2--------------------|
|---------0-0-0-0-0-0--------------------|
|                                        |
|----------------------------------------|
|----------------------------------------|
|-----------------4----------------------|Gtr II
|-0-5-4-7-4---2-5------------------------|
|----------------------------------------|
|----------------------------------------|


|----------------------------------------|
|----------------------------------------|
|----------------------------------------|Gtr I
|----------------------------------------|
|-2-3--5--3---2-3--2-2-------------------|
|-0-1--3--1---0-1--0-0-------------------|
| . .  .      . .  .                     |
|----------------------------------------|
|----------------------------------------|
|-9-10-12-10-------9-9-------------------|Gtr II
|-------------7-10-----------------------|
|----------------------------------------|
|----------------------------------------|


|----------------------------------------|
|----------------------------------------|
|----------------------------------------|Gtr I
|----------------------------------------|
|-2-2-2-2-2-2-2-2-2-2-5-5--2-------------|
|-0-0-0-0-0-0-0-0-0-0-3-3--0-------------|
|                                        |
|----------------------------------------|
|----------------------------------------|
|---------------------9-12---------------|Gtr II
|-------------------9------9-------------|
|----------------------------------------|
|----------------------------------------|


|----------------------------------------|
|----------------------------------------|
|----------------------------------------|Gtr I
|-7-7-7-7--------------------------------|
|-5-5-5-5-2-2-2---2---2---2--------------|
|---------0-0-0---0---0---0--------------|
| . . . . . . .   .   .   .              |
|----------------------------------------|
|----------------------------------------|
|---------------------4-4-2--------------|Gtr II
|-0-5-4-7-4---2-2-5-5--------------------|
|----------------------------------------|
|----------------------------------------|
  . . . . .   . . . . . . 

Riff A2 - 1x

Riff B1
|---------------------------------------------|
|---------------------------------------------|
|------------------------------------7-9p7----|Both Gtrs
|-----9------9-------------10-----10-------10-|
|-777---777----77777777777----777-------------|
|---------------------------------------------|
  ...   ...    ...........    ...

Riff B1 - 1x

Riff B2
|---------------------------------------------|
|---------------------------------------------|
|---------------------------------------------|Both Gtrs
|-000-9-000-7-00000000000-5-000-0-1-5-4-------|
|---------------------------------------------|
|---------------------------------------------|
  ...   ...   ...........   ... . . . .

Riff B2 - 1x
Riff B1 - 1x

Riff B3
|---------------------------------------------|
|---------------------------------------------|
|---------------------------------------------|Gtr I
|-000-9-000-7-00000000000-5-000-0-1-5-4-------|
|---------------------------------------------|
|---------------------------------------------|
| ...   ...   ...........   ... . . . .       |                                 
|---------------------------------------------|
|---------------------------------------------|
|---------------------------------------------|Gtr II
|-000-9-000-7-00000000000-5-000-0-7-9-7-------|
|---------------------------------------------|
|---------------------------------------------|
  ...   ...   ...........   ... . . . .

Riff B3 - 1x

Riff B4
|---------------------------------------------|
|---------------------------------------------|
|------------------------------------7-9p7----|Gtr I
|-----9------9-------------10-----10-------10-|
|-777---777----77777777777----777-------------|
|---------------------------------------------|
| ...   ...    ...........    ...             |
|---------------------------------------------|
|---------------------------------------------|
|---------------------------------------------|Gtr II
|-9--------------9-7----7-9-10----------------|
|--------------------10--------7--------------|
|---------------------------------------------|


|---------------------------------------------|
|---------------------------------------------|
|---------------------------------------------|Gtr I
|-000-9-000-7-00000000000-5-000-0-1-5-4-------|
|---------------------------------------------|
|---------------------------------------------|
| ...   ...   ...........   ... . . . .       |                                 
|---------------------------------------------|
|---------------------------------------------|
|-------------------------4-------------------|Gtr II
|-000-5-000-4-00000000000---000-0-1-5-4-------|
|---------------------------------------------|
|---------------------------------------------|
  ...   ...   ...........   ... . . . .

Riff B4 - 1x

Riff B5
|---------------------------------------------|
|---------------------------------------------|
|------------------------------------7-9p7----|Gtr I
|-----9------9-------------10-----10-------10-|
|-777---777----77777777777----777-------------|
|---------------------------------------------|
| ...   ...    ...........    ...             |
|---------------------------------------------|
|------------------------------------8-10p8---|
|-----9---------------------9------9--------9-|Gtr II
|---------------------------------------------|
|-777---777-10-77777777777----777-------------|
|---------------------------------------------|
  ...   ...    ...........    ...   

|---------------------------------------------|
|---------------------------------------------|
|---------------------------------------------|Gtr I
|-000-9-000-7-00000000000-5-000-0-1-5-4-------|
|---------------------------------------------|
|---------------------------------------------|
| ...   ...   ...........   ... . . . .       |                                 
|---------------------------------------------|
|---------------------------------------------|
|-------------------------4-------------------|Gtr II
|-000-5-000-4-00000000000---000-0-7-9-7-------|
|---------------------------------------------|
|---------------------------------------------|
  ...   ...   ...........   ... . . . .

Riff B5 - 1x
Riff B4 - 1x

Riff C1
|----------------------------------------|
|--------------------------------8-10-8--|
|-----9----------------9-------9--------9|Gtr I
|-------------9--------------------------|
|----------------------------------------|
|-0-0-----0-0------0-0-----0-0-----------|
| . .     . .      . .     . .           |
|----------------------------------------|
|----------------------------------------|
|----------------------------------------|Gtr II
|----------------------------------------|
|-----2-------2---/3---------------------|
|-0-0-----0-0----------------------------|        
  . .     . .

|----------------------------------------|
|----------------------------------------|
|-----------------------9----------------|Gtr I
|-------------------------------7---10-9-|
|-----2-------2--------------------------|
|-0-0-----0-0-------0-0-----0-0----------|
| . .     . .       . .     . .          |
|----------------------------------------|
|----------------------------------------|
|----------------------------------------|Gtr II
|----------------------------------------|
|-----2-------2----/3--------------------|
|-0-0-----0-0----------------------------|  
  . .     . .

Riff C1 - 1x

Riff C2
|----------------------------------------|
|-----5-------5-----------0-------0------|
|-----4-------4-----------2-------2------|Both Gtrs
|-2-2-2---2-2-2-------1-1-1---1-1-1------|
|----------------------------------------|
|----------------------------------------|
  . .     . .         . .     . .


|----------------------------------------|
|----------------------------------------|
|-----4-------4--------------------------|Both Gtrs
|---------------------5-5-7-4-5-5-7-5----|(





Comments


Popular Quo Vadis tabs & chords
Break The Cycle Bass Tabs
Deadmans Diary Bass Tabs
Silence Calls The Storm 2 Bass Tabs
Cadences Of Absonance Tabs
I Believe Tabs
Night Of The Roses Tabs
Point Of No Return Tabs
Point Of No Return Pt I - Mute Requiem Tabs
Rasputin Tabs
Silence Calls The Storm Tabs


Song lyrics



↑ Back to top | Tablatures and chords are parodies/interpretations of the original songs. You may use it for private study, scholarship, research or language learning purposes only
© 2014 AZChords.com Contact us | Privacy policy | DMCA | Add/correct tabs | Request tabs | Top 50 tabs