» » »

Quo Vadis, Night Of The Roses Tabs (ver.1)

Artists:  A B C D E F G H I J K L M N O P Q R S T U V W X Y Z # 

Night Of The Roses Tabs (ver.1)

Quo Vadis Tabs
Rating:
0/5 (0 votes)
Night Of The Roses lessons Tabs too difficult? Try these video lessons and learn fast
                
Tuning Standard E (E A D G B E)

***
Notes:
I was searching for info about
Arie Itman (the guitarist for the 
band at the time) and I came across
the site of his new band Jester. 
This tab was on that site so I just
copied it from there. I assume Arie
transcribed it himself as it was also
in sheet music too. I'm not positive
on the tuning but that's what he used
a lot on their other stuff.
***
_____________________
                      |
/  - slide up         |
h  - hammer on        |
_____________________ |

|---------------------------------|-------------------------------|
|---------------------------------|-------------------------------|
|---------------------------------|-------------------------------|
|-------------------5---5h7-------|---7---7---5---7---7/9----5----|
|---7---7---5---7-------------7---|-------------------------------|
|---------------------------------|-------------------------------|

|---------------------------------|
|---------------------------------|
|---------------------------------|
|---4---4-------4---5-------------|
|-----------7-----------7---------|
|-----------------------------7---|
|
|
|---------------------------------|
|---------------------------------|
|---------------------------------|
|-----------------------------9---|
|---------------------------------|
|---------------------------------|


|---------------------------------|-------------------------------|
|---------------------------------|-------------------------------|
|---------------------------------|-------------------------------|
|-------------------5---5h7-------|---7---7---5---7---7/9----5----|
|---7---7---5---7-------------7---|-------------------------------|
|---------------------------------|-------------------------------|
|
|
|---------------------------------|--10--10---8--10---10/12--8----|
|-------------------8---8h10------|-------------------------------|
|---9---9---7---9--------------9--|-------------------------------|
|---------------------------------|-------------------------------|
|---------------------------------|-------------------------------|
|---------------------------------|-------------------------------|


|-----------------------------------------------------------------|
|-----------------------------------------------------------------|
|-----------------------------------------------------------------|
|---5---4------5---7---4h5---4h5---7------------------------------|
|--------------------------------------5--------------------------|
|-----------------------------------------------------------------|
|
|
|-----------------------------------------------------------------|
|---8---7------8--10---7h8---7h8----------------------------------|
|----------------------------------9---7--------------------------|
|-----------------------------------------------------------------|
|-----------------------------------------------------------------|
|-----------------------------------------------------------------|

|---------------------------------|-------------------------------|
|---------------------------------|-------------------------------|
|---------------------------------|-------------------------------|
|-------------------5---5h7-------|---7---7---5---7---7/9----5----|
|---7---7---5---7-------------7---|-------------------------------|
|---------------------------------|-------------------------------|
|
|
|---------------------------------|--10--10---8--10---10/12--8----|
|-------------------8---8h10------|-------------------------------|
|---9---9---7---9--------------9--|-------------------------------|
|---------------------------------|-------------------------------|
|---------------------------------|-------------------------------|
|---------------------------------|-------------------------------|


|-----------------------------------------------------------------|
|-----------------------------------------------------------------|
|-----------------------------------------------------------------|
|---5---4------5---7---4h5---4h5---7------------------------------|
|--------------------------------------5--------------------------|
|-----------------------------------------------------------------|
|
|
|-----------------------------------------------------------------|
|---8---7------8--10---7h8---7h8----------------------------------|
|----------------------------------9---7--------------------------|
|-----------------------------------------------------------------|
|-----------------------------------------------------------------|
|-----------------------------------------------------------------|


|---------------------------------|
|---------------------------------|
|---------------------------------|
|---4---4-------------------------|
|-----------7---5---7---------7---|
|---------------------------------|
|
|
|---------------------------------|
|---7---7---------------------8---|
|-----------9---7---9---------9---|
|---------------------------------|
|---------------------------------|
|---------------------------------|
            

comments powered by Disqus
↑ Back to top | Quo Vadis Tabs for Night Of The Roses. Lyrics for acoustic guitar and electric guitar. Tablatures and chords are parodies/interpretations of the original songs. You may use it for private study, scholarship, research or language learning purposes only