>
 >
Deadmans Diary

Deadmans Diary Bass Tabs

Quo Vadis - Deadmans Diary chords, tabs, tablatures, lyrics

Guitar lessons | Add/correct | Request | Top 50 tabs Artists:  A B C D E F G H I J K L M N O P Q R S T U V W X Y Z 0-9

Deadmans Diary Bass Tabs – Quo Vadis

CD, Sheet music, Poster

Do you like Deadmans Diary? Share with your friends now
Bass Tabs
Quo Vadis - Deadman's Diary
rock on!

     H        E  E  E  E     H        E  E  E  E     Q    E   E  E  E   E  E   
G||-----------------------|-----------------------|--------------7--9--12--9--|
D||--------------9--------|--------------9--------|-------5s--9---------------|
A||--7--------L-----7--8--|--7--------L-----7--8--|--7------------------------|
E||-----------------------|-----------------------|---------------------------|


    S S E  Q.     E  E  E     H        E  E  E  E     H        E  E  E  E   
---------------------------|-----------------------|-----------------------|
--7g9-7--------------------|--------------9--------|--------------9--------|
--------7--7---------------|--7--------L-----7--8--|--7--------L-----7--8--|
------------------0--0--0--|-----------------------|-----------------------|


  Q    E   E  E  E   E  E       S S E  Q.     E  E  E     H        E  E  E  E   
--------------7--9--12--9--|---------------------------|-----------------------|
-------5s--9---------------|--7g9-7--------------------|--------------9--------|
--7------------------------|--------7--7---------------|--7--------L-----7--8--|
---------------------------|------------------0--0--0--|-----------------------|


                                                  |--3--|  
  H        E  E  E  E     E  E   E  E  E    E  E  S  S  S  
-----------------------|------------7--9s--12--9----------|
--------------9--------|-----7s--9----------------7h-9p-7-|
--7--------L-----7--8--|--7-------------------------------|
-----------------------|----------------------------------|


  H        E  E  E  E     H        E  E  E  E     H        E  E  E  E   
-----------------------|-----------------------|-----------------------|
-----------------------|--------------9--------|--------------9--------|
--7--------L-----------|--7--------L-----7--8--|--7--------L-----7--8--|
--------------0--0--0--|-----------------------|-----------------------|


                          |--3--|                          
  E  E   E  E  E    E  E  S  S  S    H        E  E  E  E   
------------7--9s--12--9----------|-----------------------|
-----7s--9----------------7h-9p-7-|-----------------------|
--7-------------------------------|--7--------L-----------|
----------------------------------|--------------0--0--0--|


                                             |---3--|     
    H        E   E  E  E     H        E   E  S   S  S E   
|---4--------L------------|------------------------------|
|*--4--------L------------|------------------------------|
|*--2--------L--10--6--7--|--9--------L--10--9h-10p-9-7--|
|-------------------------|------------------------------|


                  |---3--|              |---3--|           |---3--|     
  H        E   E  S   S  S E     E   E  S   S  S E  E   E  S   S  S E   
------------------------------|----------------------------------------|
------------------------------|--9------------------8------------------|
--9--------L--10--9h-10p-9-7--|-----10--9h-10p-9-7-----10--9h-10p-9-7--|
------------------------------|----------------------------------------|


                                           |--3--|   
  H        E   E  E  E     H        E  E   E  E  E   
--4--------L------------|---------------------------|
--4--------L------------|---------------------------|
--2--------L--10--6--7--|--9--------L--9b--L--9--7--|
------------------------|---------------------------|


                  |---3--|              |---3--|           |---3--|       
  H        E   E  S   S  S E     E   E  S   S  S E  E   E  S   S  S E     
------------------------------|-----------------------------------------||
------------------------------|--9------------------8------------------*||
--9--------L--10--9h-10p-9-7--|-----10--9h-10p-9-7-----10--9h-10p-9-7--*||
------------------------------|-----------------------------------------||


                                           |---3--|     
  H        E   E  E  E     H        E   E  S   S  S E   
--4--------L------------|------------------------------|
--4--------L------------|------------------------------|
--2--------L--10--6--7--|--9--------L--10--9h-10p-9-7--|
------------------------|------------------------------|


                  |---3--|              |---3--|           |---3--|     
  H        E   E  S   S  S E     E   E  S   S  S E  E   E  S   S  S E   
------------------------------|----------------------------------------|
------------------------------|--9------------------8------------------|
--9--------L--10--9h-10p-9-7--|-----10--9h-10p-9-7-----10--9h-10p-9-7--|
------------------------------|----------------------------------------|


                                           |--3--|   
  H        E   E  E  E     H        E  E   E  E  E   
--4--------L------------|---------------------------|
--4--------L------------|---------------------------|
--2--------L--10--6--7--|--9--------L--9b--L--9--7--|
------------------------|---------------------------|


                  |---3--|              |---3--|           |---3--|     
  H        E   E  S   S  S E     E   E  S   S  S E  E   E  S   S  S E   
------------------------------|----------------------------------------|
------------------------------|--9------------------8------------------|
--9--------L--10--9h-10p-9-7--|-----10--9h-10p-9-7-----10--9h-10p-9-7--|
------------------------------|----------------------------------------|


    |-3-|                         |-3-|                      
    S S S E  E  E  E  E  E  E     S S S E  E  Q    E  E  E   
|------------------------------|----------------------------|
|*-----------------------------|----------------------------|
|*-----------------------------|----------------------4--5--|
|---7-7-7-7-----7-----7--7-----|--7-7-7-7-----5----2--------|


  |-3-|                         |-3-|                      
  S S S E  E  E  E  E  E  E     S S S E  E  Q    E  E  E   
-----------------------------|----------------------------|
-----------------------------|----------------------------|
-----------------------------|----------------------4--5--|
--7-7-7-7-----7-----7--7-----|--7-7-7-7-----5----2--------|


                                          |-3-| |-3-| |-3-|                 
  T  T T S T T T T S T E  E  E   E  E     S S S S S S S S S E  E  E  E  E   
-----------------------------9--11-----|-----------------------------------|
---------------7-9-7-7-9-----7---9-----|--7-5-4-5-4------------------------|
-------7-9-7-9-------------------------|------------7-5-4------------4--5--|
--7-10---------------------------------|------------------7-5--L--2--------|


                                          |-3-| |-3-| |-3-|                 
  T  T T S T T T T S T E  E  E   E  E     S S S S S S S S S E  E  E  E  E   
-----------------------------9--11-----|-----------------------------------|
---------------7-9-7-7-9-----7---9-----|--7-5-4-5-4------------------------|
-------7-9-7-9-------------------------|------------7-5-4------------4--5--|
--7-10---------------------------------|------------------7-5--L--2--------|


  |-3-|                         |-3-|                      
  S S S E  E  E  E  E  E  E     S S S E  E  Q    E  E  E   
-----------------------------|----------------------------|
-----------------------------|----------------------------|
--------------7--------------|--------------5-------4--5--|
--7-7-7-7-----------5--5-----|--5-5-5-5----------2--------|


  |-3-|                         |-3-|                      
  S S S E  E  E  E  E  E  E     S S S E  E  Q    E  E  E   
-----------------------------|----------------------------|
-----------------------------|----------------------------|
--------------7--------------|--------------5-------4--5--|
--7-7-7-7-----------5--5-----|--5-5-5-5----------2--------|


                                          |-3-| |-3-| |-3-|                 
  T  T T S T T T T S T E  E  E   E  E     S S S S S S S S S E  E  E  E  E   
-----------------------------9--11-----|-----------------------------------|
---------------7-9-7-7-9-----7---9-----|--7-5-4-5-4------------------------|
-------7-9-7-9-------------------------|------------7-5-4-5-5--L--4--------|
--7-10---------------------------------|-----------------------------7--5--|


                                          |-3-| |-3-| |-3-|               
  T  T T S T T T T S T E  E  E   E  E     S S S S S S S S S E  H          
-----------------------------9--11-----|---------------------------------|
---------------7-9-7-7-9-----7---9-----|--7-5-4-5-4------------2s--------|
-------7-9-7-9-------------------------|------------7-5-4----------------|
--7-10---------------------------------|------------------7-5------------|


   E.      E.   E  E   E   S S S  S      E.      E.   E  E   E   S S S  S   
-------------------------------------|-------------------------------------|
--16---16g17---16--L--12-------9-12S-|--16---16g17---16--L--12-------9-12s-|
--------------------------10-9-------|--------------------------10-9-------|
-------------------------------------|-------------------------------------|


   E.   E.   E   E   E  S  S  S  S      E.   E.   E   E   E  S  S  S  S  
------------------------------------|-----------------------------------|
--16---14---12--11--------------11s-|--16---14---12--11--------------11-|
--------------------13--9-11-13-----|--------------------13--9-11-13----|
------------------------------------|-----------------------------------|


   E.      E.   E  E   E   S S S  S      E.      E.   E  E   E   S S S  S   
-------------------------------------|-------------------------------------|
--16---16g17---16--L--12-------9-12S-|--16---16g17---16--L--12-------9-12s-|
--------------------------10-9-------|--------------------------10-9-------|
-------------------------------------|-------------------------------------|


   E.   E.   E   E   E  S  S  S S    E  E  E  E  S S S S S S S S    
----------------------------------|-------------------------------||
--16---14---12--11----------------|------------------------------*||
--------------------13--9-11-13---|--9--9--9--9--9-9-9-9-9-9-9-9-*||
--------------------------------0-|-------------------------------||


  E  E  E  E  H                          H        Q    E   E   
-----------------------|----|----|----|-----------------------|
-----------------------|----|----|----|-----------------------|
--9--9--9--------------|----|----|----|-------------------14--|
-----------7--L--------|----|----|----|-----------------------|


  S S S S S S S  S S S S S S S S S    S S S S S S S S S S S S S S S S  
-----------------------------------|----------------------------------|
-----------------------------------|----------------------------------|
--9-9-9-9-9-9-9-10-7-7-7-7-7-7-7-7-|--7-7-7-7-7-7-7-9-5-5-5-5-5-5-5-5-|
-----------------------------------|----------------------------------|


  S S S S S S S S S S S S S S S S    S S S S S S S S S S S S S S S S  
----------------------------------|----------------------------------|
----------------------------------|----------------------------------|
--5-5-5-5-5-5-5-7-4-4-4-4-4-4-4-4-|--4-4-4-4-4-4-4-5-2-2-2-2-2-2-2-2-|
----------------------------------|----------------------------------|


    S S S S S S S S S S S S S S S S    S S S S S S S S S S S S S S S S  
|-----------------------------------|----------------------------------|
|*----------------------------------|----------------------------------|
|*----------------------------------|----------------------------------|
|---7-7-7-7-7-7-7-7-7-7-7-7-7-7-7-7-|--3-3-3-3-3-3-3-3-3-3-3-3-3-3-3-3-|


  S S S S S S S S S S S S S S S S    S S S S S S S S S S S S S S S S    
----------------------------------|-----------------------------------||
----------------------------------|----------------------------------*||
----------------------------------|----------------------------------*||
--4-4-4-4-4-4-4-4-4-4-4-4-4-4-4-4-|--5-5-5-5-5-5-5-5-5-5-5-5-5-5-5-5--||


   |-3-| |-3-| |-3-| |-3-| |-3-| |-3-| |-3-| |-3-|  
   S S S S S S S S S S S S S S S S S S S S S S S S  
---------------------------------------------------|
*--9-9-9-9-9-9-9-9-9-9-9-9-9-9-9-9-9-9-9-9-9-9-9-9-|
*--------------------------------------------------|
---------------------------------------------------|


  |-3-| |-3-| |-3-| |-3-| |-3-| |-3-| |-3-| |-3-|  
  S S S S S S S S S S S S S S S S S S S S S S S S  
--------------------------------------------------|
--9-9-9-9-9-9-9-9-9-9-9-9-9-9-9-9-9-9-9-9-9-9-9-9-|
--------------------------------------------------|
--------------------------------------------------|


  |-3-| |-3-| |-3-| |-3-| |-3-| |-3-| |-3-| |-3-|  
  S S S S S S S S S S S S S S S S S S S S S S S S  
--------------------------------------------------|
--9-9-9-9-9-9-9-9-9-9-9-9-9-9-9-9-9-9-9-9-9-9-9-9-|
--------------------------------------------------|
--------------------------------------------------|


  |-3-| |-3-| |-3-|                       |-3-|                       
  S S S S S S S S S E  E  S S S S E       S S S E  E  E  E  E  E  E   
--------------------------------------||-----------------------------|
--7-7-7-7-7-7-7-7-7-------7-7-7------*||-----------------------------|
--------------------0--0--------0-0--*||-----------------------------|
--------------------------------------||--7-7-7-7-----7-----7--7-----|


  |-3-|                        |-3-|                       
  S S S E  E  Q    E  E  E     S S S E  E  E  E  E  E  E   
----------------------------|-----------------------------|
----------------------------|-----------------------------|
----------------------4--5--|-----------------------------|
--7-7-7-7-----5----2--------|--7-7-7-7-----7-----7--7-----|


  |-3-|                                                              
  S S S E  E  Q    E  E  E     T  T T S T T T T S T E  E  E   E  E   
----------------------------|-----------------------------9--11-----|
----------------------------|---------------7-9-7-7-9-----7---9-----|
----------------------4--5--|-------7-9-7-9-------------------------|
--7-7-7-7-----5----2--------|--7-10---------------------------------|


  |-3-| |-3-| |-3-|                                                         
  S S S S S S S S S E  E  E  E  E     T  T T S T T T T S T E  E  E   E  E   
-----------------------------------|-----------------------------9--11-----|
--7-5-4-5-4------------------------|---------------7-9-7-7-9-----7---9-----|
------------7-5-4------------4--5--|-------7-9-7-9-------------------------|
------------------7-5--L--2--------|--7-10---------------------------------|


  |-3-| |-3-| |-3-|                   |-3-|                       
  S S S S S S S S S E  E  E  E  E     S S S E  E  E  E  E  E  E   
-----------------------------------|-----------------------------|
--7-5-4-5-4------------------------|-----------------------------|
------------7-5-4------------4--5--|--------------7--------------|
------------------7-5--L--2--------|--7-7-7-7-----------5--5-----|


  |-3-|                        |-3-|                       
  S S S E  E  Q    E  E  E     S S S E  E  E  E  E  E  E   
----------------------------|-----------------------------|
----------------------------|-----------------------------|
--------------5-------4--5--|--------------7--------------|
--5-5-5-5----------2--------|--7-7-7-7-----------5--5-----|


  |-3-|                                                              
  S S S E  E  Q    E  E  E     T  T T S T T T T S T E  E  E   E  E   
----------------------------|-----------------------------9--11-----|
----------------------------|---------------7-9-7-7-9-----7---9-----|
--------------5-------4--5--|-------7-9-7-9-------------------------|
--5-5-5-5----------2--------|--7-10---------------------------------|


  |-3-| |-3-| |-3-|                                                         
  S S S S S S S S S E  E  E  E  E     T  T T S T T T T S T E  E  E   E  E   
-----------------------------------|-----------------------------9--11-----|
--7-5-4-5-4------------------------|---------------7-9-7-7-9-----7---9-----|
------------7-5-4-5-5--L--4--------|-------7-9-7-9-------------------------|
-----------------------------7--5--|--7-10---------------------------------|


  |-3-| |-3-| |-3-|                                                     
  S S S S S S S S S E  H             E.      E.   E  E   E   S S S  S   
---------------------------------|-------------------------------------|
--7-5-4-5-4------------2s--------|--16---16g17---16--L--12-------9-12S-|
------------7-5-4----------------|--------------------------10-9-------|
------------------7-5------------|-------------------------------------|


   E.      E.   E  E   E   S S S  S      E.   E.   E   E   E  S  S  S  S   
-------------------------------------|------------------------------------|
--16---16g17---16--L--12-------9-12s-|--16---14---12--11--------------11s-|
--------------------------10-9-------|--------------------13--9-11-13-----|
-------------------------------------|------------------------------------|


   E.   E.   E   E   E  S  S  S  S     E.      E.   E  E   E   S S S  S   
-----------------------------------|-------------------------------------|
--16---14---12--11--------------11-|--16---16g17---16--L--12-------9-12S-|
--------------------13--9-11-13----|--------------------------10-9-------|
-----------------------------------|-------------------------------------|


   E.      E.   E  E   E   S S S  S      E.   E.   E   E   E  S  S  S S  
-------------------------------------|----------------------------------|
--16---16g17---16--L--12-------9-12s-|--16---14---12--11----------------|
--------------------------10-9-------|--------------------13--9-11-13---|
-------------------------------------|--------------------------------0-|


  E  E  E  E  H           W                  
-----------------------|-------------------||
-----------9-----------|-------------------||
--9--9--9--9-----------|-------------------||
-----------7--L--------|--L----------------||




Duration Legend
---------------
W - whole
H - half
Q - quarter
E - 8th
S - 16th
T - 32nd
X - 64th
. - note dotted
|-n-|  - n-tuplets


Tablature Legend
----------------
L - tied note
x - dead note
g - grace note
(n) - ghost note
> - accentuded note
NH - natural harmonic
AH - artificial harmonic
TH - tapped harmonic
SH - semi harmonic
PH - pitch harmonic
h - hammer on
p - pull off
b - bend
br - bendRelease
pb - preBend
pbr - preBendRelease
brb - bendReleaseBend
\n/ - tremolo bar dip
\n - tremolo bar dive
-/n - tremolo bar Release up
/n\ - tremolo bar inverted dip
/n - tremolo bar return
-\n - tremolo bar Release down
S - shift slide
s - legato slide
/ -  slide into from below or out of upwards
\ -  slide into from above or out of downwards
~ - vibrato
W - wide vibrato
tr - trill
TP - tremolo picking
T - tapping
S - slap
P - pop
< - fade in
^ - brush up
v - brush down





Comments


Popular Quo Vadis tabs & chords
Break The Cycle Bass Tabs
Silence Calls The Storm 2 Bass Tabs
Cadences Of Absonance Tabs
Dream Tabs
I Believe Tabs
Night Of The Roses Tabs
On The Shores Of Ithaka Tabs
Point Of No Return Tabs
Rasputin Tabs
Silence Calls The Storm Tabs


Song lyrics



↑ Back to top | Tablatures and chords are parodies/interpretations of the original songs. You may use it for private study, scholarship, research or language learning purposes only
© 2014 AZChords.com Contact us | Privacy policy | DMCA | Add/correct tabs | Request tabs | Top 50 tabs