>
 >
Cadences Of Absonance

Cadences Of Absonance Guitar Tabs

Quo Vadis - Cadences Of Absonance chords, tabs, tablatures, lyrics

Guitar lessons | Add/correct | Request | Top 50 tabs Artists:  A B C D E F G H I J K L M N O P Q R S T U V W X Y Z 0-9

Cadences Of Absonance Guitar Tabs – Quo Vadis

CD, Sheet music, Poster

Do you like Cadences Of Absonance? Share with your friends now
Tabs
Band: Quo Vadis


Intro - Clean
|--------------------------------------------------------------------------|
|--------------------------------------------------------------------------|
|--------------------------------------------------------------------------|
|-------5----------------4h5p4------------1h2p1-----4---1---4/7---4-5-7~---|
|-----7---------------7--------7-------2--------3-2---2---2----------------|
|---7---------------7----------------2-------------------------------------|

|-------------------------------------------------------------------------|
|-------------------------------------------------------------------------|
|-------------------------------------------------------------------------|
|---4h5p4----------5-------------4h5p4h5-/7--------1----------------------|
|---------7------7------------7------------------2-------7\6--------------|
|--------------7------------7------------------2-------------8-7\5-3-2~---|

Riff 1               
|-----------------------------------------------------------|
|-----------------------------------------------------------|
|-----------------------------------------------------------|
|-----9p7h9p7-------5p4h5p4------9p7h9p7--------5p4h5p4-----|
|-------------10------------7------------10--------------7--|
|--0--------------0------------0--------------0-------------|

|------------------------------------------------------------|
|------------------------------------------------------------|
|------------------------------------------------------------|
|----10p9h10p9--------7p5h7p5------10p9h10p9-----------------|
|--------------12-------------9--------------12--10-12-10-9--|
|--0---------------0-------------0---------------------------|

|-----------------------------------------------------------|
|-----------------------------------------------------------|
|-----------------------------------------------------------|
|-----9p7h9p7-------5p4h5p4------9p7h9p7--------5p4h5p4-----|
|-------------10------------7------------10--------------7--|
|--0--------------0------------0--------------0-------------|
“On the shores...”

|----------------------------------------------------------|
|----------------------------------------------------------|
|----------------------------------------------------------|
|----10p9h10p9--------7p5h7p5------10p9h10p9-------7-5-----|
|--------------12-------------9--------------12--------9---|
|--0---------------0-------------0---------------0---------|

Riff 2
|---------------------------------------------|
|---------------------------------------------|
|---------------------------------------------|
|-------9-------------9-----------------9-----|
|----12-----9-10---12-----9-10-9tr10-12---10--|
|--0------0------0------0---------------------|
“Of abandonment...”

|-----------------------------------------|
|-----------------------------------------|
|-----------------------------------------|
|-------------7------------7-7tr9---------|
|----9-10---9-----9-10---9--------10-9-7--|
|--8------8-----8------8------------------|

|---------------------------------------------|
|---------------------------------------------|
|---------------------------------------------|
|-------9-------------9-----------------9-----|
|----12-----9-10---12-----9-10-9tr10-12---10--|
|--0------0------0------0---------------------|

|-----------------------------------------|
|-----------------------------------------|
|-----------------------------------------| Gtr. 1 - Clean
|-------------7------------7-7tr9---------|
|----9-10---9-----9-10---9--------10-9-7--|
|--8------8-----8------8------------------|
|
|-----------------------------------------|
|-----------------------------------------|
|-----------------------------------------|Gtr. 2 - Distorted
|----------------10-----------------------|
|----------------10-----------------------|
|-----------------8-----------------------|
                  “All I see is...”

w/Riff 1
|-----------------------------------------------------------|
|-----------------------------------------------------------|
|-----------------------------------------------------------| Gtr. 2
|-----9-7-9-7-------5-4-5-4------9-7-9-7--------5-4-5-4-----|Distorted
|-------------10------------7------------10--------------7--|
|--0--------------0------------0--------------0-------------|
   .  . . . . .   . . . . . .  . . . . . .    . . . . .  .
“Venom!!!!!”

|------------------------------------------------------------|
|------------------------------------------------------------|
|------------------------------------------------------------|
|----10-9-10-9--------7-5-7-5------10-9-10-9-----------------|
|--------------12-------------9--------------12--10-12-10-9--|
|--0---------------0-------------0---------------------------|
   .  . .  . .  .  .  . . . . .  .  . .  . .  .

|-----------------------------------------------------------|
|-----------------------------------------------------------|
|-----------------------------------------------------------|
|-----9-7-9-7-------5-4-5-4------9-7-9-7--------5-4-5-4-----|
|-------------10------------7------------10--------------7--|
|--0--------------0------------0--------------0-------------|
   .  . . . . .   . . . . . .  . . . . . .    . . . . .  .

|------------------------------------------------------------|
|------------------------------------------------------------|
|------------------------------------------------------------|
|----10-9-10-9--------7-5-7-5------10-9-10-9-------------7~--|
|--------------12-------------9--------------12---7-9-10-----|
|--0---------------0-------------0---------------------------|
   .  . .  . .  .  .  . . . . .  .  . .  . .  . 

Riff 3
|-----------------------------------------------------------|
|-----------------------------------------------------------|
|--------------------------------5--------------------------|
|--2-----------------2-----------5---5-5-5--5-5--5-----7----|
|--2----2-2-2--2-2-2-2-----------3---3-3-3--3-3--5-----7----|
|--0----0-0-0--0-0-0-0---3-1-5-3-----------------3-----5----|
        . . .  . . .                 . . .  . .
“Venom......is all I see”

Riff 4
|---------------------------------------------|
|---------------------------------------------|
|---------------------------------------------|
|-----------------------10-----10-7-----------|
|--77777777777777777777----777------777-10~---|
|---------------------------------------------|
   ....................    ...      ...
“Oddly it sooths me...”

|--------------------------------------------|
|--------------------------------------------|
|--------------------------------------------|
|-------------------5-----5-----4-----4------|
|--7777777777777777---777---777---777---777--|
|--------------------------------------------|
   ................   ...   ...   ...   ...

|---------------------------------------------|
|---------------------------------------------|
|---------------------------------------------|
|-----------------------10-----10-7-----------|
|--77777777777777777777----777------777-10~---|
|---------------------------------------------|
   ....................    ...      ...

|-----------------------------------------------------------------|
|-----------------------------------------------------------------|
|-----------------------------------------------------------------|
|-------------------5-----5-----4-----4-----7-----7-----5-----4~--|
|--7777777777777777---777---777---777---777---777---777---777-----|
|-----------------------------------------------------------------|
   ................   ...   ...   ...   ...

Riff 5
|-------------------------------------------|
|-------------------------------------------|
|-------------------------------------------|
|-------------14\------------7h9------------|
|-----6h7-----------10p9p7-9-----7-7-7-10~--|
|--0----------------------------------------|
“It quiets my mind...”           . . .

|-----------------------------------------------|
|-----------------------------------------------|
|-----------------------------------------------|
|-------------------------------------------2---|
|--6h7---------10-----9~--5-5-5-5-5-5-3-3-3-3---|
|------0-0-0-0----0-0---------------------------|
       . . . .    . .     . . . . . . . . .

|---------------------------------------------|
|---------------------------------------------|
|---------------------------------------------|
|------------14\-----9p7----7h9h10------------|
|-----6h7----------------10--------7-7-7-10~--|
|--0------------------------------------------|
                                   . . .

|-----------------------------------------------------------|
|-----------------------------------------------------------|
|-----------------------------------------------------------|
|-----------------------------------------------------------|
|--6h7---------10-----9~-222222223333333355557777101010109~-|
|------0-0-0-0----0-0---------------------------------------|
       . . . .    . .    ........................ . . . .

Riff 6
|---------------------------------------------------------|
|---------------------------------------------------------|
|---------------------------------------------------------|
|---------------------------------------------------------|
|---------------------------------------------------------|
|--7-000-7-000-7-000-8-000-8-000-8-000-8-000-10-000-8-000-|
   . ... . ... . ... . ... . ... . ... . ...  . ... . ...
“Here I stand...”

|--------------------------------------|
|--------------------------------------|
|--------------------------------------|
|--------------------------------------|
|--------------------10-------12---9---|
|--7-000-7-000-7-000--8-------10---7---|
   . ... . ... . ...

Riff 5 “It quiets my mind...”

Fill 1
|------|
|------|
|------|
|--X\--|
|--X\--|
|------|

On this riff, the muted E string occasionally has triplets or sixteenth notes...just listen or improvise it.
Outro
|-------------------------------------------------|
|-------------------------------------------------|
|-------------------------------------------------|
|-------------------------------------------------|
|-------------------3p2----------------2tr3-------|
|-0-0-0-0-0-0-0-0-0-----3--0-0-0-0-0-0------2tr3--|
“I threaten the universe...”

Last Time
|------------------------------------------------------|
|------------------------------------------------------|
|------------------------------------------------------|Gtr. 1
|--------------------------------------------------2---|
|-------------------3p2----------------2tr3--------2---|
|-0-0-0-0-0-0-0-0-0-----3--0-0-0-0-0-0------2tr3---0---|
|
|------------------------------------------------------|
|------------------------------------------------------|
|------------------------------------------------------|Gtr. 2
|--------------------------------------4tr5--------2---|
|-------------------3p2---------------------4tr5—--2---|
|-0-0-0-0-0-0-0-0-0-----3--0-0-0-0-0-0-------------0---|

There is a little bit after a minute or two that is kind of a “hidden” track, but I don’t see why anyone would need the tabs...it’s not exactly going to be a great live song, and being a harmony thing, it’ll suck with only one guitar. But if anyone wants it, e-mail me and I’ll do it real quick.





Comments


Popular Quo Vadis tabs & chords
Break The Cycle Bass Tabs
Deadmans Diary Bass Tabs
Silence Calls The Storm 2 Bass Tabs
Dream Tabs
I Believe Tabs
Night Of The Roses Tabs
On The Shores Of Ithaka Tabs
Point Of No Return Tabs
Point Of No Return Pt I - Mute Requiem Tabs
Rasputin Tabs


Song lyrics



↑ Back to top | Tablatures and chords are parodies/interpretations of the original songs. You may use it for private study, scholarship, research or language learning purposes only
© 2014 AZChords.com Contact us | Privacy policy | DMCA | Add/correct tabs | Request tabs | Top 50 tabs