>
 >
Break The Cycle

Break The Cycle Bass Tabs

Quo Vadis - Break The Cycle chords, tabs, tablatures, lyrics

Guitar lessons | Add/correct | Request | Top 50 tabs Artists:  A B C D E F G H I J K L M N O P Q R S T U V W X Y Z 0-9

Break The Cycle Bass Tabs – Quo Vadis

CD, Sheet music, Poster

Do you like Break The Cycle? Share with your friends now
Bass Tabs
                                  |--3--|                               
             E   E  E   E  S  E.  Q     E     H.           E  E  E  E   
G||-------|--------------------------------|---------------------------|
D||-------|---------5s--7--8s-9---9s----5--|---------------------------|
A||-------|-----/7-------------------------|--7------------L--0--0--2--|
E||-------|--------------------------------|---------------------------|


  W.                  W.                  W.                
-------------------|-------------------|-------------------|
-------------------|-------------------|-------------------|
--3----------------|--L----------------|--L----------------|
-------------------|-------------------|-------------------|


  H.           E  E  E  E  E  E   
---------------5--------5--------|
------------------4--------4-----|
--L------------------3--------3--|
---------------------------------|


    E  S S S S S S S S S S E  S S S S S S S S S S  
|-------------------------------------------------|
|*------------------------------------------------|
|*------------------------------------------------|
|---0--0-0-0-0-0-0-0-0-0-0-0--0-0-0-0-0-0-0-0-0-0-|


  E  S S S S S S S S S S Q.     E   Q     
-----------------------------------------|
-------------------------4------4s--5----|
-----------------------------------------|
--0--0-0-0-0-0-0-0-0-0-0-----------------|


  E  S S S S S S S S S S E  S S S S S S S S S S  
------------------------------------------------|
------------------------------------------------|
--3--3-3-3-3-3-3-3-3-3-3-3--3-3-3-3-3-3-3-3-3-3-|
------------------------------------------------|


  E  S S S S S S S S S S E  E  E  E  E  E        E  E  E  E  E  E  E   E   
-------------------------5--------5---------||----------------------------|
----------------------------4--------4-----*||*-----9-----8-----9-----10--|
--3--3-3-3-3-3-3-3-3-3-3-------3--------3--*||*--7-----7-----7-----7------|
--------------------------------------------||----------------------------|


               |--3--|   |--3--|               |---3--|   |---3--|   
  E  E  E  E   E  E  E   E  E  E     H         E  E   E   E  E   E   
----------------------------------|---------------------------------|
-----9-----7--10--9--7--10--9--7--|-----------10--9------10--9------|
--7-----7-------------------------|------------------10---------10--|
----------------------------------|--8------------------------------|


           |--3--|  |--3--|                                                
  H        E  E  E  E  E  E       W                   H.            Q      
------------------------------||--9----------------|--L-------------------|
-----------9--7-----9--7-----*||--9----------------|--L-------------------|
-----------------9--------9--*||--7----------------|--L------------10\----|
--7---------------------------||--0----------------|--L-------------------|


    E  S S S S S S S S S S E  S S S S Q.       
|---------------------------------------------|
|*--------------------------------------------|
|*--3--3-3-3-3-3-3-3-3-3-3-3--3-3-3-3-3/------|
|---------------------------------------------|


   E   S  S  S  S  S  S  S  S  S  S  E   E   E   E   E   E   
------------------------------------17----------17----------|
----------------------------------------16----------16------|
--15--15-15-15-15-15-15-15-15-15-15---------15----------15--|
------------------------------------------------------------|


  E  S S S S S S S S S S E  S S S S S S S S S S  
------------------------------------------------|
------------------------------------------------|
------------------------------------------------|
--0--0-0-0-0-0-0-0-0-0-0-0--0-0-0-0-0-0-0-0-0-0-|


  E  S S S S S S S S S S Q.     E   Q       
------------------------------------------||
-------------------------4------4s--5----*||
-----------------------------------------*||
--0--0-0-0-0-0-0-0-0-0-0------------------||


  E  S S S S S S S S S S E  S S S S Q.       
--------------------------------------------|
--------------------------------------------|

--3--3-3-3-3-3-3-3-3-3-3-3--3-3-3-3-3/------|
--------------------------------------------|


   E   S  S  S  S  S  S  S  S  S  S  E   E   E   E   E   E   
------------------------------------17----------17----------|
----------------------------------------16----------16------|
--15--15-15-15-15-15-15-15-15-15-15---------15----------15--|
------------------------------------------------------------|


  E  E   E  E   E  E  E  E  E  E  E  E     E  E   E  E   E  E  Q.     Q.      
----------------------------------------|------------------------------------|
------------7---------------------------|------------7-----------------------|
--7--9--10-----10--9--------------------|--7--9--10-----10--9---------2------|
----------------------0--2--3--5--3--2--|----------------------0-------------|


  E  S S S S S S S S S S E  S S S S S S S S S S  
------------------------------------------------|
------------------------------------------------|
--3--3-3-3-3-3-3-3-3-3-3-3--3-3-3-3-3-3-3-3-3-3-|
------------------------------------------------|


  E  S S S S S S S S S S E  E  E  E  E  E   
-------------------------5--------5--------|
----------------------------4--------4-----|
--3--3-3-3-3-3-3-3-3-3-3-------3--------3--|
-------------------------------------------|


    E  E  E  E  E  E  E  E  E  E  E  E     E  E  E  E  E  E  E  E  E  E   Q     
|---------------------------------------|--------------------------------------|
|*-----------------------------5--4-----|-----------------------------9--10----|
|*-----------------------------------5--|-----------7-----------5--7-----------|
|---0--7--0--5--0--7--0-----0-----------|--0--0--0-----0--0--0-----------------|


  E  E  E  E  E  E  E  E  E  E  E  E     E  E  E  E   Q    E  E  E  E  E  E     
--------------------------------------|---------------------------------------||
-----------------------------5--4-----|-----------9--10----------5--7--5--4--*||
-----------------------------------5--|-----5--7-----------5--7--------------*||
--0--7--0--5--0--7--0-----0-----------|--0------------------------------------||


   E  S S S S S S S S S S E  S S S S Q.       
---------------------------------------------|
*--------------------------------------------|
*--3--3-3-3-3-3-3-3-3-3-3-3--3-3-3-3-3/------|
---------------------------------------------|


   E   S  S  S  S  S  S  S  S  S  S  E   E   E   E   E   E   
------------------------------------17----------17----------|
----------------------------------------16----------16------|
--15--15-15-15-15-15-15-15-15-15-15---------15----------15--|
------------------------------------------------------------|


  E  S S S S S S S S S S E  S S S S S S S S S S  
------------------------------------------------|
------------------------------------------------|
------------------------------------------------|
--0--0-0-0-0-0-0-0-0-0-0-0--0-0-0-0-0-0-0-0-0-0-|


  E  S S S S S S S S S S Q.     E   Q       
------------------------------------------||
-------------------------4------4s--5----*||
-----------------------------------------*||
--0--0-0-0-0-0-0-0-0-0-0------------------||


  E  S S S S S S S S S S E  S S S S Q.       
--------------------------------------------|
--------------------------------------------|
--3--3-3-3-3-3-3-3-3-3-3-3--3-3-3-3-3/------|
--------------------------------------------|


   E   S  S  S  S  S  S  S  S  S  S  E   E   E   E   E   E   
------------------------------------17----------17----------|
----------------------------------------16----------16------|
--15--15-15-15-15-15-15-15-15-15-15---------15----------15--|
------------------------------------------------------------|


  E  E   E  E   E  E  E  E  E  E  E  E     E  E   E  E   E  E  Q.     Q.      
----------------------------------------|------------------------------------|
------------7---------------------------|------------7-----------------------|
--7--9--10-----10--9--------------------|--7--9--10-----10--9---------2------|
----------------------0--2--3--5--3--2--|----------------------0-------------|


  E  S S S S S S S S S S E  S S S S S S S S S S  
------------------------------------------------|
------------------------------------------------|
--3--3-3-3-3-3-3-3-3-3-3-3--3-3-3-3-3-3-3-3-3-3-|
------------------------------------------------|


  E  S S S S S S S S S S E  E  E  E  E  E      H.            Q     
-------------------------5--------5--------|----------------------|
----------------------------4--------4-----|----------------------|
--3--3-3-3-3-3-3-3-3-3-3-------3--------3--|----------------------|
-------------------------------------------|--12\-----------------|


  W                   W                   Q    E   E     W                 
-------------------|-------------------|--------------|-------------------|
-------------------|-------------------|--------------|-------------------|
-------------------|-------------------|--------------|-------------------|
--0----------------|--L----------------|--L----3s--5--|--0----------------|


  W                   H         E  E  E  E     E  E  E  E   
-------------------|------------------------|--------------|
-------------------|------------------------|--------------|
-------------------|-----------10--7--7--9--|--9-----------|
--L----------------|--L---------------------|-----8--7--8--|


  Q.     E   Q    Q         W                    H.           E  E   
------------------------|---------------------|---------------------|
------------------------|---------------------|---------------------|
---------7s--9----2s----|--10s----------------|--3------------5--7--|
--0---------------------|---------------------|---------------------|


  E  E  E  E     H.           Q         W                  
--------------|---------------------|---------------------|
--------------|---------------------|---------------------|
--7--7--------|---------------2s----|--10s----------------|
--------5--7--|--0------------------|---------------------|


  H.           E  E     E  E  E  E     Q.     E   Q    E  E   
---------------------|--------------|---------------------4--|
---------------------|--------------|---------2s--4----------|
--3------------5--7--|--7--9--------|------------------2-----|
---------------------|--------8--7--|--0---------------------|


  Q.     Q.     E  E     Q.     E   Q    E  E     E  E  E  E   
-------------------5--|------------------------|--------------|
---------5------------|---------5s--7-------7--|-----2--4-----|
----------------3-----|--3---------------------|--3--------2--|
--3-------------------|------------------5-----|--------------|


                                                  |-----3-----|                 
  Q.     E   Q    E  E     Q.     Q.     E  E     E   E  Q    Q     E  E  Q     
---------------------4--|-------------------5--|-------------------------------|
---------2s--4----------|---------5------------|--------------7----10--7--9----|
------------------2-----|----------------3-----|---------7---------------------|
--0---------------------|--3-------------------|--3s--5------------------------|


  E  E  E  E     S S Q    S S Q    S S E     E  S S Q    S S Q    S S  
--------------|---------------------------|---------------------------|
--4-----------|---------------------------|---------------------------|
-----3--2-----|---------------------------|---------------------------|
-----------3--|--0-0-0----0-0-0----0-0-0--|--L--0-0-0----0-0-0----0-0-|


  Q    S S Q    S S Q       E  E  E   E     S S Q    S S Q    S S E   
-------------------------|---------------|---------------------------|
-------------------------|--------7S--9--|---------------------------|
-------------------------|-----7---------|---------------------------|
--0----0-0-0----0-0-0----|--0------------|--0-0-0----0-0-0----0-0-0--|


  E  S S Q    S S Q    S S    Q    S S Q     E  E    E      H         
---------------------------|-----------------------------|-----------|
---------------------------|----------------10--7--7g9\--|--L--------|
---------------------------|-----------------------------|-----------|
--L--0-0-0----0-0-0----0-0-|--0----0-0-0-----------------|-----------|


    E  Q.     E  E  E  E     H.           Q        E  Q.     E  E  E  E   
|-------------------------|---------------------|------------------------|
|*------------------------|---------------------|------------------------|
|*------------------------|---------------------|------------------------|
|---0--0------0-----0--0--|--L------------7/----|--0--0------0-----0--0--|


  H.           Q        W                   W                 
---------------------|-------------------|-------------------|
---------------------|-------------------|-------------------|
---------------1/----|--6----------------|--L----------------|
--L------------------|-------------------|-------------------|


  H        H              E  Q.     Q    E  E     W                 
----------------------||-----------------------|-------------------|
---------------------*||-----------------------|-------------------|
--L--------6\--------*||-----------------------|-------------------|
----------------------||--0--0------0----0--0--|--L----------------|


  H.            Q        E  S S S S S S S S S S E  S S S S Q.       
----------------------|--------------------------------------------|
----------------------|--------------------------------------------|
---------------10S----|--3--3-3-3-3-3-3-3-3-3-3-3--3-3-3-3-3/------|
--L-------------------|--------------------------------------------|


   E   S  S  S  S  S  S  S  S  S  S  E   E   E   E   E   E   
------------------------------------17----------17----------|
----------------------------------------16----------16------|
--15--15-15-15-15-15-15-15-15-15-15---------15----------15--|
------------------------------------------------------------|


  E  S S S S S S S S S S E  S S S S S S S S S S  
------------------------------------------------|
------------------------------------------------|
------------------------------------------------|
--0--0-0-0-0-0-0-0-0-0-0-0--0-0-0-0-0-0-0-0-0-0-|


  E  S S S S S S S S S S Q.     E   Q     
-----------------------------------------|
-------------------------4------4s--5----|
-----------------------------------------|
--0--0-0-0-0-0-0-0-0-0-0-----------------|


     |-3-| |-3-| |-3-|    |-3-| |-3-|      
  E  S S S S S S S S S E  S S S S S S E    
------------------------------------------|
------------------------------------------|
--3--3-3-3-3-3-3-3-3-3-3--3-3-3-3-3-3-3s--|
------------------------------------------|


       |--3--|  |--3--|  |--3--|  |---3---|   |---3---|   
   E   S  S  S  S  S  S  S  S  S  E   E   E   E   E   E   
---------------------------------17----------17----------|
-------------------------------------16----------16------|
--15--15-15-15-15-15-15-15-15-15---------15----------15--|
---------------------------------------------------------|


                                             |--3--|   |--3--|   
    E  E  E  E  E  E  E   E     E  E  E  E   E  E  E   E  E  E   
|----------------------------|----------------------------------|
|*-----9-----8-----9-----10--|-----9-----7--10--9--7--10--9--7--|
|*--7-----7-----7-----7------|--7-----7-------------------------|
|----------------------------|----------------------------------|


            |---3--|   |---3--|              |--3--|  |--3--|     
  H         E  E   E   E  E   E     H        E  E  E  E  E  E     
---------------------------------|------------------------------||
-----------10--9------10--9------|-----------9--7-----9--7-----*||
------------------10---------10--|-----------------9--------9--*||
--8------------------------------|--7---------------------------||


  W                   H.            Q      
--9----------------|--L-------------------|
--9----------------|--L-------------------|
--7----------------|--L------------10\----|
--0----------------|--L-------------------|


    E  S S S S S S S S S S E  S S S S Q.       
|---------------------------------------------|
|*--------------------------------------------|
|*--3--3-3-3-3-3-3-3-3-3-3-3--3-3-3-3-3/------|
|---------------------------------------------|


   E   S  S  S  S  S  S  S  S  S  S  E   E   E   E   E   E   
------------------------------------17----------17----------|
----------------------------------------16----------16------|
--15--15-15-15-15-15-15-15-15-15-15---------15----------15--|
------------------------------------------------------------|


  E  S S S S S S S S S S E  S S S S S S S S S S  
------------------------------------------------|
------------------------------------------------|
------------------------------------------------|
--0--0-0-0-0-0-0-0-0-0-0-0--0-0-0-0-0-0-0-0-0-0-|


  E  S S S S S S S S S S Q.     E   Q       
------------------------------------------||
-------------------------4------4s--5----*||
-----------------------------------------*||
--0--0-0-0-0-0-0-0-0-0-0------------------||


  E  S S S S S S S S S S E  S S S S Q.       
--------------------------------------------|
--------------------------------------------|
--3--3-3-3-3-3-3-3-3-3-3-3--3-3-3-3-3/------|
--------------------------------------------|


   E   S  S  S  S  S  S  S  S  S  S  E   E   E   E   E   E   
------------------------------------17----------17----------|
----------------------------------------16----------16------|
--15--15-15-15-15-15-15-15-15-15-15---------15----------15--|
------------------------------------------------------------|


  E  E   E  E   E  E  E  E  E  E  E  E     E  E   E  E   E  E  Q.     Q.      
----------------------------------------|------------------------------------|
------------7---------------------------|------------7-----------------------|
--7--9--10-----10--9--------------------|--7--9--10-----10--9---------2------|
----------------------0--2--3--5--3--2--|----------------------0-------------|


  E  S S S S S S S S S S E  S S S S S S S S S S  
------------------------------------------------|
------------------------------------------------|
--3--3-3-3-3-3-3-3-3-3-3-3--3-3-3-3-3-3-3-3-3-3-|
------------------------------------------------|


  E  S S S S S S S S S S E  E  E  E  E  E   
-------------------------5--------5--------|
----------------------------4--------4-----|
--3--3-3-3-3-3-3-3-3-3-3-------3--------3--|
-------------------------------------------|


  E  E  E  E  E  E  E  E  E  E  E  E     E  E  E  E  E  E  E  E  E  E   Q     
--------------------------------------|--------------------------------------|
-----------------------------5--4-----|-----------------------------9--10----|
-----------------------------------5--|-----------7-----------5--7-----------|
--0--7--0--5--0--7--0-----0-----------|--0--0--0-----0--0--0-----------------|


  E  E  E  E  E  E  E  E  E  E  E  E     E  E  E  E   Q    E  E  E  E  E  E   
--------------------------------------|--------------------------------------|
-----------------------------5--4-----|-----------9--10----------5--7--5--4--|
-----------------------------------5--|-----5--7-----------5--7--------------|
--0--7--0--5--0--7--0-----0-----------|--0-----------------------------------|


  E  S S S S S S S S S S E  S S S S Q.       
--------------------------------------------|
--------------------------------------------|
--3--3-3-3-3-3-3-3-3-3-3-3--3-3-3-3-3/------|
--------------------------------------------|


   E   S  S  S  S  S  S  S  S  S  S  E   E   E   E   E   E   
------------------------------------17----------17----------|
----------------------------------------16----------16------|
--15--15-15-15-15-15-15-15-15-15-15---------15----------15--|
------------------------------------------------------------|


  E  S S S S S S S S S S E  S S S S S S S S S S  
------------------------------------------------|
------------------------------------------------|
------------------------------------------------|
--0--0-0-0-0-0-0-0-0-0-0-0--0-0-0-0-0-0-0-0-0-0-|


  E  S S S S S S S S S S Q.     E   Q     
-----------------------------------------|
-------------------------4------4s--5----|
-----------------------------------------|
--0--0-0-0-0-0-0-0-0-0-0-----------------|


    E  S S S S S S S S S S E  S S S S Q.       
|---------------------------------------------|
|*--------------------------------------------|
|*--3--3-3-3-3-3-3-3-3-3-3-3--3-3-3-3-3/------|
|---------------------------------------------|


   E   S  S  S  S  S  S  S  S  S  S  E   E   E   E   E   E   
------------------------------------17----------17----------|
----------------------------------------16----------16------|
--15--15-15-15-15-15-15-15-15-15-15---------15----------15--|
------------------------------------------------------------|


  E  E   E  E   E  E  E  E  E  E  E  E     E  E   E  E   E  E  Q.     Q.        
----------------------------------------|-------------------------------------||
------------7---------------------------|------------7-----------------------*||
--7--9--10-----10--9--------------------|--7--9--10-----10--9---------2------*||
----------------------0--2--3--5--3--2--|----------------------0--------------||


  E  S S S S S S S S S S E  S S S S S S S S S S  
------------------------------------------------|
------------------------------------------------|
--3--3-3-3-3-3-3-3-3-3-3-3--3-3-3-3-3-3-3-3-3-3-|
------------------------------------------------|


  E  S S S S S S S S S S E  E  E  E  E  E       S S Q    S S Q    S S E   
-------------------------5--------5--------||----------------------------|
----------------------------4--------4-----||*---------------------------|
--3--3-3-3-3-3-3-3-3-3-3-------3--------3--||*---------------------------|
-------------------------------------------||---0-0-0----0-0-0----0-0-0--|


  E  S S Q    S S Q    S S    Q    S S Q    S S Q       E  E  E   E   
---------------------------|-------------------------|---------------|
---------------------------|-------------------------|--------7S--9--|
---------------------------|-------------------------|-----7---------|
--L--0-0-0----0-0-0----0-0-|--0----0-0-0----0-0-0----|--0------------|


  S S Q    S S Q    S S E     E  S S Q    S S Q    S S  
---------------------------|---------------------------|
---------------------------|---------------------------|
---------------------------|---------------------------|
--0-0-0----0-0-0----0-0-0--|--L--0-0-0----0-0-0----0-0-|


  Q    S S E   E  E    E    E      E  E  E   E     
-------------------------------|-----------------||
--------------10--7--7g9\------|----------------*||
---------------------------10--|--10--9--9--10--*||
--0----0-0-0-------------------|-----------------||




Duration Legend
---------------
W - whole
H - half
Q - quarter
E - 8th
S - 16th
T - 32nd
X - 64th
. - note dotted
|-n-|  - n-tuplets


Tablature Legend
----------------
L - tied note
x - dead note
g - grace note
(n) - ghost note
> - accentuded note
NH - natural harmonic
AH - artificial harmonic
TH - tapped harmonic
SH - semi harmonic
PH - pitch harmonic
h - hammer on
p - pull off
b - bend
br - bendRelease
pb - preBend
pbr - preBendRelease
brb - bendReleaseBend
\n/ - tremolo bar dip
\n - tremolo bar dive
-/n - tremolo bar Release up
/n\ - tremolo bar inverted dip
/n - tremolo bar return
-\n - tremolo bar Release down
S - shift slide
s - legato slide
/ -  slide into from below or out of upwards
\ -  slide into from above or out of downwards
~ - vibrato
W - wide vibrato
tr - trill
TP - tremolo picking
T - tapping
S - slap
P - pop
< - fade in
^ - brush up
v - brush down





Comments


Popular Quo Vadis tabs & chords
Deadmans Diary Bass Tabs
Silence Calls The Storm Bass Tabs
Silence Calls The Storm 2 Bass Tabs
Dream Tabs
I Believe Tabs
Night Of The Roses Tabs
Point Of No Return Tabs
Point Of No Return Pt I - Mute Requiem Tabs
Rasputin Tabs
Silence Calls The Storm Tabs


Song lyrics



↑ Back to top | Tablatures and chords are parodies/interpretations of the original songs. You may use it for private study, scholarship, research or language learning purposes only
© 2014 AZChords.com Contact us | Privacy policy | DMCA | Add/correct tabs | Request tabs | Top 50 tabs