» » »

Quinn Peck, Wonderful Week Bass tabs (ver.1)

Artists:  A B C D E F G H I J K L M N O P Q R S T U V W X Y Z # 

Wonderful Week Bass tabs (ver.1)

Quinn Peck Tabs
 Rating:
4/5 (4 votes)
Wonderful Week lessons Tabs too difficult? Try these video lessons and learn fast
                #------------------------------------------------------------------------------##

                            WONDERFUL WEEK (Bassline)
                            As recorded by Quinn Peck

Music by Quinn Peck
Arranged by guitarist5240

Gtr I (E A D G) - 'Untitled'
Gtr II (E A D G) - 'Untitled'

 Intro
  Q=120
 4/4
  Gtrs I, II
  Q.   E +H       Q.   H    E    Q.   E +H       Q.   H    +E
|---------------|-------------|----------------|-----------------|
|---------------|-------------|----------------|-----------------|
|---------------|-------------|----------------|-----------------|
|-0----0-(0)----|-0----0----0-|-/9----9-(9)----|-9----9----(9)\--|


  Q.   E +H       Q.   E +H         Q.    E  +H        Q.   E +Q   E E
|---------------|---------------|-------------------|-------------------|
|---------------|------9-(9)----|-------------------|-------------------|
|---------------|---------------|-/11----11-(11)----|-\9----9-(9)--6----|
|-7----7-(7)----|-7-------------|-------------------|----------------7--|


   Verse
    E E E E E E E E   E E E E E E   E  E   E E E E E E E E   E E E E E E E E
||------------------|--------------------|-----------------|-----------------|
||o-----------------|--------------------|-----------------|-----------------|
||o-----------------|--------------------|-----------------|-----------------|
||--0-0-0-0-0-0-0-0-|-0-0-0-0-0-0-/12-11-|-9-9-9-9-9-9-9-9-|-9-9-9-9-9-9-9-7-|


  E E E E E E E E   E E E E E E E E
|-----------------|-----------------|
|-----------------|---------9-9-9-9-|
|-----------------|-----------------|
|-7-7-7-7-7-7-7-7-|-7-7-7-7---------|


   E  E  E  E  E  E  E  E   E E E E E E E E
|-------------------------|-------------------||
|-------------------------|------------------o||
|-11-11-11-11-11-11-12-11-|-9-9-9-9-9-6-6----o||
|-------------------------|---------------7---||


 Chorus
                                                 |--3--|
   E.  E.  E  Q.    E    E  S  E  S  E  S  E  S  S  S  S  E
|---------------------|-------------------------------------|
|------------14-------|-14----13----14----13----13h14p13----|
|-12--12--12-------12-|----12----12----12----12----------14-|
|---------------------|-------------------------------------|


   E.  E.  E  Q.    E    S  E  S  E  S  E  S  E  Q
|---------------------|------------------------------|
|------------16-------|-------------------------16---|
|---------16----------|------------------------------|
|-14--14-----------12-|-12-14-12-14-12-14-12-14------|


   E.  E.  E  Q.    E    E  S  E  S  E  S  E  S  E  E
|---------------------|-------------------------------|
|------------18-------|-18----16----14----16----14----|
|-16--16--16-------16-|----16----16----16----16----16-|
|---------------------|-------------------------------|


                                               |--3--|
   Q   H     +E   E    E  S  E  S  E  S  E  S  S  S  S  E
|-------------------|-------------------------------------|
|-----16----(16)----|-16----14----13----13----13h14p13----|
|-14-------------14-|----14----14----14----14----------14-|
|-------------------|-------------------------------------|


                                                 |--3--|
   E.  E.  E  Q.    E    E  S  E  S  E  S  E  S  S  S  S  E
|---------------------|-------------------------------------|
|------------14-------|-14----13----14----13----13h14p13----|
|-12--12--12-------12-|----12----12----12----12----------14-|
|---------------------|-------------------------------------|


   E.  E.  E  Q.    E    S  E  S  E  S  E  S  E  Q
|---------------------|------------------------------|
|------------16-------|-------------------------16---|
|---------16----------|------------------------------|
|-14--14-----------12-|-12-14-12-14-12-14-12-14------|


   E.  E.  E  Q.    E    E  S  E  S  E  S  E  S  E  E
|---------------------|-------16----18----16----------|
|------------18-------|-18----------------------18-16-|
|-16--16--16-------16-|----16----16----16----16-------|
|---------------------|-------------------------------|


   Q   H     +E   E    E  S  E  S  E  +Q     E  E
|-------------------|------------------------------|
|-----16----(16)----|-16----14----13-(13)----------|
|-14-------------14-|----14----14----------/12-11--|
|-------------------|------------------------------|


   Verse
    E E E E E E E E   E E E E E E   E  E   E E E E E E E E   E E E E E E E E
||------------------|--------------------|-----------------|-----------------|
||o-----------------|--------------------|-----------------|-----------------|
||o-----------------|--------------------|-----------------|-----------------|
||--0-0-0-0-0-0-0-0-|-0-0-0-0-0-0-/12-11-|-9-9-9-9-9-9-9-9-|-9-9-9-9-9-9-9-7-|


  E E E E E E E E   E E E E E E E E
|-----------------|-----------------|
|-----------------|---------9-9-9-9-|
|-----------------|-----------------|
|-7-7-7-7-7-7-7-7-|-7-7-7-7---------|


   E  E  E  E  E  E  E  E   E E E E E E E E
|-------------------------|-------------------||
|-------------------------|------------------o||
|-11-11-11-11-11-11-12-11-|-9-9-9-9-9-6-6----o||
|-------------------------|---------------7---||


 Chorus
                                                 |--3--|
   E.  E.  E  Q.    E    E  S  E  S  E  S  E  S  S  S  S  E
|---------------------|-------------------------------------|
|------------14-------|-14----13----14----13----13h14p13----|
|-12--12--12-------12-|----12----12----12----12----------14-|
|---------------------|-------------------------------------|


   E.  E.  E  Q.    E    S  E  S  E  S  E  S  E  Q
|---------------------|------------------------------|
|------------16-------|-------------------------16---|
|---------16----------|------------------------------|
|-14--14-----------12-|-12-14-12-14-12-14-12-14------|


   E.  E.  E  Q.    E    E  S  E  S  E  S  E  S  E  E
|---------------------|-------------------------------|
|------------18-------|-18----16----14----16----14----|
|-16--16--16-------16-|----16----16----16----16----16-|
|---------------------|-------------------------------|


                                               |--3--|
   Q   H     +E   E    E  S  E  S  E  S  E  S  S  S  S  E
|-------------------|-------------------------------------|
|-----16----(16)----|-16----14----13----13----13h14p13----|
|-14-------------14-|----14----14----14----14----------14-|
|-------------------|-------------------------------------|


                                                 |--3--|
   E.  E.  E  Q.    E    E  S  E  S  E  S  E  S  S  S  S  E
|---------------------|-------------------------------------|
|------------14-------|-14----13----14----13----13h14p13----|
|-12--12--12-------12-|----12----12----12----12----------14-|
|---------------------|-------------------------------------|


   E.  E.  E  Q.    E    S  E  S  E  S  E  S  E  Q
|---------------------|------------------------------|
|------------16-------|-------------------------16---|
|---------16----------|------------------------------|
|-14--14-----------12-|-12-14-12-14-12-14-12-14------|


   E.  E.  E  Q.    E    E  S  E  S  E  S  E  S  E  E
|---------------------|-------16----18----16----------|
|------------18-------|-18----------------------18-16-|
|-16--16--16-------16-|----16----16----16----16-------|
|---------------------|-------------------------------|


   Q   H     +E   E    E  S  E  S  E  +Q     E  E
|-------------------|------------------------------|
|-----16----(16)----|-16----14----13-(13)----------|
|-14-------------14-|----14----14----------/12-11--|
|-------------------|------------------------------|


   Guitar Solo/Outro
    E E E E E E E E   E E E E E E   E  E   E E E E E E E E   E E E E E E E E
||------------------|--------------------|-----------------|-----------------|
||o-----------------|--------------------|-----------------|-----------------|
||o-----------------|--------------------|-----------------|-----------------|
||--0-0-0-0-0-0-0-0-|-0-0-0-0-0-0-/12-11-|-9-9-9-9-9-9-9-9-|-9-9-9-9-9-9-9-7-|


  1.
  E E E E E E E E   E E E E E E E E
|-----------------|-----------------|
|-----------------|---------9-9-9-9-|
|-----------------|-----------------|
|-7-7-7-7-7-7-7-7-|-7-7-7-7---------|


   E  E  E  E  E  E  E  E   E E E E E E E E
|-------------------------|-------------------||
|-------------------------|------------------o||
|-11-11-11-11-11-11-12-11-|-9-9-9-9-9-6-6----o||
|-------------------------|---------------7---||


  2.
  E E E E E E E E   E E E E E E E E
|-----------------|-----------------|
|-----------------|---------9-9-9-9-|
|-----------------|-----------------|
|-7-7-7-7-7-7-7-7-|-7-7-7-7---------|


   E  E  E  E  E  E  E  E   E E E E E E E E   W
|-------------------------|-----------------|------*|
|-------------------------|-----------------|------*|
|-11-11-11-11-11-11-12-11-|-9-9-9-9-9-6-6---|------*|
|-------------------------|---------------7-|-0----*|


Duration Legend
---------------
W - whole; H - half; Q - quarter; E - 8th; S - 16th; T - 32nd; X - 64th; a - acciaccatura
+ - note tied to previous; . - note dotted; .. - note double dotted
Uncapitalized letters represent notes that are staccato (1/2 duration)
Irregular groupings are notated above the duration line
Duration letters will always appear directly above the note/fret number it represents the
duration for.  Duration letters with no fret number below them represent rests.  Multi-
bar rests are notated in the form Wxn, where n is the number of bars to rest for.  Low
melody durations appear below the staff

Tablature Legend
----------------
 h   - hammer-on
 p   - pull-off
 b   - bend
 pb  - pre-bend
 r   - bend release (if no number after the r, then release immediately)
 /\  - slide into or out of (from/to "nowhere")
 s   - legato slide
 S   - shift slide
  - natural harmonic
[n]  - artificial harmonic
n(n) - tapped harmonic
 ~   - vibrato
 tr  - trill
 T   - tap
 TP  - trem. picking
 PM  - palm muting
\n/  - tremolo bar dip; n = amount to dip
 \n  - tremolo bar down
 n/  - tremolo bar up
/n\  - tremolo bar inverted dip
 =   - hold bend; also acts as connecting device for hammers/pulls
 <>  - volume swell (louder/softer)
 x   - on rhythm slash represents muted slash
 o   - on rhythm slash represents single note slash

Misc Legend
-----------
 |  - bar
||  - double bar
||o - repeat start
o|| - repeat end
*|  - double bar (ending)
 :  - bar (freetime)
 $  - Segno
 &  - Coda
Tempo markers -  = BPM(8/16=s8/s16), where s8 = swing 8ths, s16 = swing 16ths


***************************************************************************************
***************************************************************************************
            
Submit corrections

comments powered by Disqus
↑ Back to top | Quinn Peck Bass for Wonderful Week. Lyrics for acoustic guitar and electric guitar. Tablatures and chords are parodies/interpretations of the original songs. You may use it for private study, scholarship, research or language learning purposes only