>
 >
Walking Alone

Walking Alone Guitar Tabs

Quinn Peck - Walking Alone chords, tabs, tablatures, lyrics

Guitar lessons | Add/correct | Request | Top 50 tabs Artists:  A B C D E F G H I J K L M N O P Q R S T U V W X Y Z 0-9

Walking Alone Guitar Tabs – Quinn Peck

CD, Sheet music, Poster

Do you like Walking Alone? Share with your friends now
Tabs
#------------------------------------------------------------------------------##

                                  WALKING ALONE
                            As recorded by Quinn Peck

Music by Quinn Peck
Arranged by Quinn Peck

Gtr I (E A D G B E) - 'Untitled'
Gtr II (E A D G B E) - 'Untitled'
Gtr III (E A D G B E) - 'Untitled'
Gtr IV (E A D G B E) - 'Untitled'

 Intro
  Q=90
  E                 G                 F#                E
 4/4
  Gtr I
  Q  E. E S E E E   Q  E. E S E E E   Q  E. E S E E E   Q  E. E S E E E
|----0--0-0---0---|----3--3-3---3---|----3--3-3---3-2-|----0--0-0---0---|
|----0--0-0---0---|----3--3-3---3---|----3--3-3---3-3-|----0--0-0---0---|
|----0--0-0---0---|----0--0-0---0---|----0--0-0---0-0-|----0--0-0---0---|
|-----------------|----0--0-0---0---|-----------------|-----------------|
|-----------------|-----------------|-----------------|-----------------|
|-0---------0---0-|-3---------3---3-|-2---------2-----|-0---------0---0-|


   Verse
    E                 G
    Gtr I
    Q  E. E S E E E   Q  E. E S E E E
||-----0--0-0---0---|----3--3-3---3---|
||o----0--0-0---0---|----3--3-3---3---|
||-----0--0-0---0---|----0--0-0---0---|
||------------------|----0--0-0---0---|
||o-----------------|-----------------|
||--0---------0---0-|-3---------3---3-|
|
|   Gtr III
|   Q  E. E S E E E   Q  E. E S E E E
||-----0--0-0---0---|----3--3-3---3---|
||o----0--0-0---0---|----3--3-3---3---|
||-----0--0-0---0---|----0--0-0---0---|
||------------------|----0--0-0---0---|
||o---------------2-|---------------2-|
||--0---------0-----|-3---------3-----|


  F#                E
  Q  E. E S E E E   Q  E. E S E   E  E   3x
|----3--3-3---3-2-|----0--0-0-----0------||
|----3--3-3---3-3-|----0--0-0-----0-----o||
|----0--0-0---0-0-|----0--0-0-----0------||
|-----------------|----------------------||
|-----------------|---------------------o||
|-2---------2-----|-0---------0------0---||
|
| Q  E. E S E E E   Q  E. E S E   Q      3x
|----3--3-3---3---|----0--0-0---<12>-----||
|----3--3-3---3---|----0--0-0---<12>----o||
|----0--0-0---0---|----0--0-0---<12>-----||
|-----------------|-------------<12>-----||
|-----------------|-------------<12>----o||
|-2---------2---2-|-0---------0-<12>-----||


  E                   G                   C                 D
  Gtrs I, III
  Q  E. E S E E S S   Q  E. E S E E S S   Q  E. E S E E E   H       E E E E
|----0--0-0---0-----|----3--3-3---3-----|----0--0-0---0---|-2-------2-2-2-2---|
|----0--0-0---0-----|----3--3-3---3-----|----3--3-3---3---|-3-------3-3-3-3---|
|----0--0-0---0-----|----0--0-0---0-----|----0--0-0---0---|-2-------2-2-2-2---|
|-------------------|----0--0-0---0-----|----2--2-2---2---|-0-------0-0-0-0---|
|-------------------|---------------0-2-|-3---------3---3-|-------------------|
|-0---------0---0-2-|-3---------3-------|-----------------|-------------------|
|
| Gtr II
|                                                           <
| W                   W                   W                 E E E E E E E E
|-------------------|-------------------|-----------------|-------------------|
|-------------------|-------------------|-----------------|-------------------|
|-------------------|-------------------|-----------------|-7-7-7-7-7-7-7-7---|
|-------------------|-------------------|-----------------|-7-7-7-7-7-7-7-7---|
|-------------------|-------------------|-----------------|-5-5-5-5-5-5-5-5---|
|-------------------|-------------------|-----------------|-------------------|


 Chorus
  Bm7G/E            Bm7/E       D
   S  E  S E E. S S  S   E  E   E. S E E.     S S S  E  E
|--7-(7)-7-x-7--7-7-(7)-10--7-|-------------------------7-|
|--7h=8--8-x-8--8-8p=7------7-|-7--7-x-7------7-7-x-------|
|--7-(7)-7-x-7--7-7-(7)-----7-|-7--7-x-7------7-7-x--7----|
|--7h=9--9-x-9--9-9p=7------7-|-7--7-x-7------7-7-x-------|
|--7-(7)-7-x-7--7-7-(7)-------|-5--5-x-5------5-5-x-------|
|-----------------------------|---------------------------|
|
|  H.                    E  E   H         +E    E    E  E
|-----------------------------|---------------------------|
|-/8--------------------------|-7---------(7)-------------|
|-/9--------------------11-12-|-7---------(7)---7---11-12-|
|-----------------------------|---------------------------|
|-----------------------------|---------------------------|
|-----------------------------|---------------------------|


  D/B                     C
  E. S E E. S S S  E  E   E. S E E. S S S S S S S
|-2--2-x-2--2-2-2-------|---------------------5---|
|-3--3-x-3--3-3-3-------|-5--5-x-5--5-5-5---5---5-|
|-2--2-x-2--2-2-2-------|-5--5-x-5--5-5-5-5-------|
|-4--4-x-4--4-4-4-------|-5--5-x-5--5-5-5---------|
|-2--2-x-2--2-2-2-----2-|-3--3-x-3--3-3-3---------|
|------------------5----|-------------------------|
|
| H.               E  E   W
|-----------------------|-------------------------|
|-3---------------------|-5-----------------------|
|-4---------------12-11-|-5-----------------------|
|-----------------------|-------------------------|
|-----------------------|-------------------------|
|-----------------------|-------------------------|


  Bm7G/E            Bm7/E       D
   S  E  S E E. S S  S   E  E   E. S E E.     S S S  E  E
|--7-(7)-7-x-7--7-7-(7)-10--7-|-------------------------7-|
|--7h=8--8-x-8--8-8p=7------7-|-7--7-x-7------7-7-x-------|
|--7-(7)-7-x-7--7-7-(7)-----7-|-7--7-x-7------7-7-x--7----|
|--7h=9--9-x-9--9-9p=7------7-|-7--7-x-7------7-7-x-------|
|--7-(7)-7-x-7--7-7-(7)-------|-5--5-x-5------5-5-x-------|
|-----------------------------|---------------------------|
|
|  H.                    E  E   H         +E    E    E  E
|-----------------------------|---------------------------|
|-/8-----------------------10-|-7---------(7)-------------|
|-/9--------------------12----|-7---------(7)---7---11-12-|
|-----------------------------|---------------------------|
|-----------------------------|---------------------------|
|-----------------------------|---------------------------|


  D/B                     C
  E. S E E. S S S  E  E   E.S E E. S S S S S S S
|-2--2-x-2--2-2-2-------|--------------------0---|
|-3--3-x-3--3-3-3-------|-5-5-x-5--5-5-5---0---0-|
|-2--2-x-2--2-2-2-------|-5-5-x-5--5-5-5-0-------|
|-4--4-x-4--4-4-4-------|-5-5-x-5--5-5-5---------|
|-2--2-x-2--2-2-2-----2-|-3-3-x-3--3-3-3---------|
|------------------5----|------------------------|
|
| H.               E  E   H.             Q
|-----------------------|------------------------|
|-3---------------------|-5p=============0-------|
|-4---------------12-11-|-5p=============0-------|
|-----------------------|------------------------|
|-----------------------|------------------------|
|-----------------------|------------------------|


 Verse
  E                  G                 F#                E
   Q  E. E S E E E   Q  E. E S E E E   Q  E. E S E E E   Q  E. E S E   Q
|-----0--0-0---0---|----3--3-3---3---|----3--3-3---3-2-|----0--0-0---<12>--|
|-----0--0-0---0---|----3--3-3---3---|----3--3-3---3-3-|----0--0-0---<12>--|
|-----0--0-0---0---|----0--0-0---0---|----0--0-0---0-0-|----0--0-0---<12>--|
|------------------|----0--0-0---0---|-----------------|-------------<12>--|
|------------------|-----------------|-----------------|-------------<12>--|
|--0---------0---0-|-3---------3---3-|-2---------2-----|-0---------0-<12>--|
|
|  >
|  W                 W                 W                 W
|------------------|-----------------|-----------------|-------------------|
|-/8---------------|-----------------|-----------------|-------------------|
|-/9---------------|-----------------|-----------------|-------------------|
|------------------|-----------------|-----------------|-------------------|
|------------------|-----------------|-----------------|-------------------|
|------------------|-----------------|-----------------|-------------------|


    E                       G
    Gtr I
    Q   E. E  S E E   E     Q    E. E  S E E    E
||------0--0--0---0-------|------3--3--3---3--------|
||o-----0--0--0---0-------|------3--3--3---3--------|
||------0--0--0---0-------|------0--0--0---0--------|
||------------------------|------0--0--0---0--------|
||o-----------------------|-------------------------|
||--0-----------0-----0---|-3------------3------3---|
|
|   Gtr III
|   E E E. E.   E S S S S   E E  E. E.   E S  S S S
||------7-----------7-----|-----10-----------10-----|
||o---8----8------8---8---|---8-----8------8----8---|
||--9-----------9-------9-|-7------------7--------7-|
||------------------------|-------------------------|
||o-----------------------|-------------------------|
||------------------------|-------------------------|


  F#                         E
   Q     E.  E  S  E  E  E   Q   E. E  S E   Q
|--------3---3--3-----3--2-|-----0--0--0---<12>-----||
|--------3---3--3-----3--3-|-----0--0--0---<12>----o||
|--------0---0--0-----0--0-|-----0--0--0---<12>-----||
|--------------------------|---------------<12>-----||
|--------------------------|---------------<12>----o||
|--2---------------2-------|-0-----------0-<12>-----||
|
|  E  E  E.  E.    E  E  E   E E E. E.   E   E  E
|-------10-----------10----|-----7-----------7------||
|----10-----10-------------|---8----8--------8-----o||
|-11--------------11----11-|-9-----------9---9------||
|--------------------------|------------------------||
|--------------------------|-----------------------o||
|--------------------------|--------------------0---||


  E                              G
  Q         E. E     S E E S S   Q         E. E      S E E S S
|-----------0--0-----0---0-----|-----------3--3------3---3-----|
|-----------0--0-----0---0-----|-----------3--3------3---3-----|
|-----------0--0-----0---0-----|-----------0--0------0---0-----|
|------------------------------|-----------0--0------0---0-----|
|------------------------------|---------------------------0-2-|
|-0--------------------0---0-2-|-3---------------------3-------|
|
|                 >                               >
| S  S   Q.      +H              S  S   Q.       +H
|--------7-------(7)-----------|-------10-------(10)-----------|
|----8--(8)------(8)-----------|----8--(8)-------(8)-----------|
|-9-(9)-(9)------(9)-----------|-7-(7)-(7)-------(7)-----------|
|------------------------------|-------------------------------|
|------------------------------|-------------------------------|
|------------------------------|-------------------------------|
|
| W                              W
|------------------------------|-------------------------------|
|------------------------------|-------------------------------|
|------------------------------|-------------------------------|
|------------------------------|-------------------------------|
|------------------------------|-------------------------------|
|------------------------------|-------------------------------|


  C                             D
  Q         E. E      S E E E   H               E  E E E
|-----------0--0------0---0---|-2---------------2--2-2-2-|
|-----------3--3------3---3---|-3---------------3--3-3-3-|
|-----------0--0------0---0---|-2---------------2--2-2-2-|
|-----------2--2------2---2---|-0---------------0--0-0-0-|
|-3---------------------3---3-|--------------------------|
|-----------------------------|--------------------------|
|
|                  >
| S  S   Q.       +H            S  S   Q.      +H
|-------10-------(10)---------|-------10------(10)-------|
|----8--(8)-------(8)---------|----7--(7)------(7)-------|
|-9-(9)-(9)-------(9)---------|-7-(7)-(7)------(7)-------|
|-----------------------------|--------------------------|
|-----------------------------|--------------------------|
|-----------------------------|--------------------------|
|
|                               Gtr II
|                               <
| W                             E      E  E E   E  E E E
|-----------------------------|--------------------------|
|-----------------------------|--------------------------|
|-----------------------------|-7------7--7-7---7--7-7-7-|
|-----------------------------|-7------7--7-7---7--7-7-7-|
|-----------------------------|-5------5--5-5---5--5-5-5-|
|-----------------------------|--------------------------|


 Chorus
  Bm7G/E            Bm7/E       D
  Gtrs I, III
   S  E  S E E. S S  S   E  E   E. S E E.     S S S  E  E
|--7-(7)-7-x-7--7-7-(7)-10--7-|-------------------------7-|
|--7h=8--8-x-8--8-8p=7------7-|-7--7-x-7------7-7-x-------|
|--7-(7)-7-x-7--7-7-(7)-----7-|-7--7-x-7------7-7-x--7----|
|--7h=9--9-x-9--9-9p=7------7-|-7--7-x-7------7-7-x-------|
|--7-(7)-7-x-7--7-7-(7)-------|-5--5-x-5------5-5-x-------|
|-----------------------------|---------------------------|
|
| Gtr II
|  H.                    E  E   H         +E    E    E  E
|-----------------------------|---------------------------|
|-/8--------------------------|-7---------(7)-------------|
|-/9--------------------11-12-|-7---------(7)---7---11-12-|
|-----------------------------|---------------------------|
|-----------------------------|---------------------------|
|-----------------------------|---------------------------|


  Bm                      C
  E. S E E. S S S  E  E   E. S E E. S S S S S S S
|-2--2-x-2--2-2-2-------|---------------------5---|
|-3--3-x-3--3-3-3-------|-5--5-x-5--5-5-5---5---5-|
|-2--2-x-2--2-2-2-------|-5--5-x-5--5-5-5-5-------|
|-4--4-x-4--4-4-4-------|-5--5-x-5--5-5-5---------|
|-2--2-x-2--2-2-2-----2-|-3--3-x-3--3-3-3---------|
|------------------5----|-------------------------|
|
| H.               E  E   W
|-----------------------|-------------------------|
|-3---------------------|-5-----------------------|
|-4---------------12-11-|-5-----------------------|
|-----------------------|-------------------------|
|-----------------------|-------------------------|
|-----------------------|-------------------------|


  Bm7G/E            Bm7/E       D
   S  E  S E E. S S  S   E  E   E. S E E.     S S S  E  E
|--7-(7)-7-x-7--7-7-(7)-10--7-|-------------------------7-|
|--7h=8--8-x-8--8-8p=7------7-|-7--7-x-7------7-7-x-------|
|--7-(7)-7-x-7--7-7-(7)-----7-|-7--7-x-7------7-7-x--7----|
|--7h=9--9-x-9--9-9p=7------7-|-7--7-x-7------7-7-x-------|
|--7-(7)-7-x-7--7-7-(7)-------|-5--5-x-5------5-5-x-------|
|-----------------------------|---------------------------|
|
|  H.                    E  E   H         +E    E    E  E
|-----------------------------|---------------------------|
|-/8-----------------------10-|-7---------(7)-------------|
|-/9--------------------12----|-7---------(7)---7---11-12-|
|-----------------------------|---------------------------|
|-----------------------------|---------------------------|
|-----------------------------|---------------------------|


  Bm                      C
  E. S E E. S S S  E  E   E.S E E. S S S S S S S
|-2--2-x-2--2-2-2-------|--------------------0---|
|-3--3-x-3--3-3-3-------|-5-5-x-5--5-5-5---0---0-|
|-2--2-x-2--2-2-2-------|-5-5-x-5--5-5-5-0-------|
|-4--4-x-4--4-4-4-------|-5-5-x-5--5-5-5---------|
|-2--2-x-2--2-2-2-----2-|-3-3-x-3--3-3-3---------|
|------------------5----|------------------------|
|
| H.               E  E   H.             Q
|-----------------------|------------------------|
|-3---------------------|-5p=============0-------|
|-4---------------12-11-|-5p=============0-------|
|-----------------------|------------------------|
|-----------------------|------------------------|
|-----------------------|------------------------|


 Bridge
  E                 G                 F#                E
  Q  E. E S E E E   Q  E. E S E E E   Q  E. E S E E E   Q  E. E S E E E
|----0--0-0---0---|----3--3-3---3---|----3--3-3---3-2-|----0--0-0---0---|
|----0--0-0---0---|----3--3-3---3---|----3--3-3---3-3-|----0--0-0---0---|
|----0--0-0---0---|----0--0-0---0---|----0--0-0---0-0-|----0--0-0---0---|
|-----------------|----0--0-0---0---|-----------------|-----------------|
|-----------------|-----------------|-----------------|-----------------|
|-0---------0---0-|-3---------3---3-|-2---------2-----|-0---------0---0-|


  E                   G
    Gtrs I, III
  Q  E. E S E E S S   Q  E. E S E E S S
|----0--0-0---0-----|----3--3-3---3-----|
|----0--0-0---0-----|----3--3-3---3-----|
|----0--0-0---0-----|----0--0-0---0-----|
|-------------------|----0--0-0---0-----|
|-------------------|---------------0-2-|
|-0---------0---0-2-|-3---------3-------|
|
| Gtr II
| W                   W
|-------------------|-------------------|
|-------------------|-------------------|
|-------------------|-------------------|
|-------------------|-------------------|
|-------------------|-------------------|
|-------------------|-------------------|


  C                 D
  Q  E. E S E E E    H           E  E  E  E
|----0--0-0---0---|--2-----------2--2--2--2---|
|----3--3-3---3---|--3-----------3--3--3--3---|
|----0--0-0---0---|--2-----------2--2--2--2---|
|----2--2-2---2---|--0-----------0--0--0--0---|
|-3---------3---3-|---------------------------|
|-----------------|---------------------------|
|
|                    <
| W                  E  E  E  E  E  E  E  E
|-----------------|---------------------------|
|-----------------|---------------------------|
|-----------------|---------------------------|
|-----------------|-12-12-12-12-12-12-12-12---|
|-----------------|-12-12-12-12-12-12-12-12---|
|-----------------|-10-10-10-10-10-10-10-10---|


 Solo/Outro
  E                                  G
  Gtrs I, III
    Q   E. E   S  E     E     E        Q   E. E   S  E     E     E
|-------0--0---0--------0----------|-------3--3---3--------3----------|
|-------0--0---0--------0----------|-------3--3---3--------3----------|
|-------0--0---0--------0----------|-------0--0---0--------0----------|
|----------------------------------|-------0--0---0--------0----------|
|----------------------------------|----------------------------------|
|---0-------------0-----------0----|---3-------------3-----------3----|
|
| Gtr II
|   Q   q    E    S  S  S  S  S  S     Q   q    E    S  S  S  S  S  S
|----------------------------------|----------------------------------|
|----------------------------------|----------------------------------|
|----------------------11h12p11----|----------------------11h12p11----|
|-/14--14--------12h14----------12-|-/14--14--------12h14-------------|
|----------------------------------|-------------------------------12-|
|----------------------------------|----------------------------------|


  F#                           E
    Q   E. E   S  E     E  E     Q   E. E   S  E     E     E
|-------3--3---3--------3--2-|-------0--0---0--------0-----------|
|-------3--3---3--------3--3-|-------0--0---0--------0-----------|
|-------0--0---0--------0--0-|-------0--0---0--------0-----------|
|----------------------------|-----------------------------------|
|----------------------------|-----------------------------------|
|---2-------------2----------|---0-------------0-----------0-----|
|
|   Q   q    E    S  S  E  E     Q   q    E    S  S  S  S  S  S
|----------------------------|-----------------------------------|
|----------------------------|-------------------------------15--|
|----------------------12----|----------------11h12h14-12p11-----|
|-------------------------12-|-/14--14---------------------------|
|-/14--14--------12h14-------|-----------------------------------|
|----------------------------|-----------------------------------|


  E                                    G
   Q      E. E   S  E     E     E       Q      E. E   S  E     E     E
|---------0--0---0--------0----------|---------3--3---3--------3----------|
|---------0--0---0--------0----------|---------3--3---3--------3----------|
|---------0--0---0--------0----------|---------0--0---0--------0----------|
|------------------------------------|---------0--0---0--------0----------|
|------------------------------------|------------------------------------|
|--0----------------0-----------0----|--3----------------3-----------3----|
|
|  Q      q    E    E     E     E       Q      q    E    E     E     E
|--------12--------------------------|--------12--------15b17-15b19-15b17-|
|-15b17------------15b17-15b17-15b17-|-15b17------------------------------|
|------------------------------------|------------------------------------|
|------------------------------------|------------------------------------|
|------------------------------------|------------------------------------|
|------------------------------------|------------------------------------|


  F#                                   E
   Q      E. E   S  E     E     E       Q     E. E S E E E
|---------3--3---3--------3-----2----|--------0--0-0---0----|
|---------3--3---3--------3-----3----|--------0--0-0---0----|
|---------0--0---0--------0-----0----|--------0--0-0---0----|
|------------------------------------|----------------------|
|------------------------------------|----------------------|
|--2----------------2----------------|--0------------0---0--|
|
|                                       >
|  Q      q    E    E     S  S  S  S    W
|--------12--------------15-15-15-15-|-12-------------------|
|-15b17------------15b17-------------|-15b17----------------|
|------------------------------------|----------------------|
|------------------------------------|----------------------|
|------------------------------------|----------------------|
|------------------------------------|----------------------|


  E                                     G
   Q     E. E    S    E     E    E       Q        E. E S E E E
|--------0--0----0----------0---------|-----------3--3-3---3---|
|--------0--0----0----------0---------|-----------3--3-3---3---|
|--------0--0----0----------0---------|-----------0--0-0---0---|
|-------------------------------------|-----------0--0-0---0---|
|-------------------------------------|------------------------|
|--0------------------0----------0----|--3---------------3---3-|
|
|              |----3----|  |---3---|    |--3--|
|  H           E    E    E  E  E    E    E  E  E  H.
|-12----------12----------------------|------------------------|
|-15b17------------15---12------------|------------------------|
|--------------------------14-12------|-14-12----12------------|
|----------------------------------14-|-------14---------------|
|-------------------------------------|------------------------|
|-------------------------------------|------------------------|


  F#                                                 E
   Q           E.        E     S  E     E     E       Q           E.        E     S  E     E     E
|--------------3---------3-----3--------3-----2----|--------------0---------0-----0--------0-------|
|--------------3---------3-----3--------3-----3----|--------------0---------0-----0--------0-------|
|--------------0---------0-----0--------0-----0----|--------------0---------0-----0--------0-------|
|--------------------------------------------------|-----------------------------------------------|
|--------------------------------------------------|-----------------------------------------------|
|--2------------------------------2----------------|--0------------------------------0-----------0-|
|
|  S  S  S  S  S   S  S  S  S  S  S  S  S  S  S  S    S  S  S  S  S   S  S  S  S  S  S  S S S S S
|-------------------------------------------------|-------------------------------12----12-15-12-|
|-------------------------------------------------|------------12-----12-15-12-15----15----------15|
|-------------------------------------------12----|12-14-12-14-----14----------------------------|
|-------------------------12----12-14-12-14----14-|----------------------------------------------|
|------12----12--14-12-14----14-------------------|----------------------------------------------|
|12-15----15--------------------------------------|----------------------------------------------|


  E                                           G
   Q      E.   E       S E  E          E       Q      E.   E S E  E          E
|---------0----0-------0----0---------------|---------3----3-3----3---------------|
|---------0----0-------0----0---------------|---------3----3-3----3---------------|
|---------0----0-------0----0---------------|---------0----0-0----0---------------|
|-------------------------------------------|---------0----0-0----0---------------|
|-------------------------------------------|-------------------------------------|
|--0---------------------0-------------0----|--3---------------3-------------3----|
|
|  ~~~~~~~~~~~~~~~~~~~~                        ~~~~~~~~~~~~
|  Q      Q       Q         S     +S   S  S    Q      H           S     +S   S  S
|-------------------------------------------|-------------------------------------|
|-15b17--15b17---15b17-----15b17r(15)p12----|-15b17--15b17-------15b17r(15)p12----|
|----------------------------------------14-|----------------------------------14-|
|-------------------------------------------|-------------------------------------|
|-------------------------------------------|-------------------------------------|
|-------------------------------------------|-------------------------------------|


  F#                                   E
   Q      E.   E S E  E         E       Q   E. E S E  E          E
|---------3----3-3----3---------2----|------0--0-0----0---------------|
|---------3----3-3----3---------3----|------0--0-0----0---------------|
|---------0----0-0----0---------0----|------0--0-0----0---------------|
|------------------------------------|--------------------------------|
|------------------------------------|--------------------------------|
|--2---------------2-----------------|--0----------0-------------0----|
|
|  ~~~~~~~~~~~~~~~~~~~~~~~~~
|  Q      H           S      S  S  S    H.            S     +S   S  S
|---------------------------15-------|-12-----------------------------|
|-17b19--17b19-------17b19=====17r15-|---------------15b17r(15)p12----|
|------------------------------------|-----------------------------14-|
|------------------------------------|--------------------------------|
|------------------------------------|--------------------------------|
|------------------------------------|--------------------------------|


  E                                              G
   Q   E.            E    S E  E          E       Q   E.            E    S E  E          E
|------0-------------0----0----0---------------|------3-------------3----3----3---------------|
|------0-------------0----0----0---------------|------3-------------3----3----3---------------|
|------0-------------0----0----0---------------|------0-------------0----0----0---------------|
|----------------------------------------------|------0-------------0----0----0---------------|
|----------------------------------------------|----------------------------------------------|
|--0------------------------0-------------0----|--3------------------------3-------------3----|
|
|  ~~                   ~~                        ~~                   ~~
|  Q   S     +S   S  S  Q      S     +S   S  S    Q   S     +S   S  S  Q      S     +S   S  S
|-12-------------------12----------------------|-15-------------------15----------------------|
|-----15b17r(15)p12-----------15b17r(15)p12----|-----15b17r(15)p12-----------15b17r(15)p12----|
|-------------------14----------------------14-|-------------------14----------------------14-|
|----------------------------------------------|----------------------------------------------|
|----------------------------------------------|----------------------------------------------|
|----------------------------------------------|----------------------------------------------|


  F#                            E
   Q     E. E S E  E     E       Q     E. E   S E  E     E
|--------3--3-3----3-----2----|--------0--0---0----0--------|
|--------3--3-3----3-----3----|--------0--0---0----0--------|
|--------0--0-0----0-----0----|--------0--0---0----0--------|
|-----------------------------|-----------------------------|
|-----------------------------|-----------------------------|
|--2------------2-------------|--0--------------0--------0--|
|
|  ~~~~~
|  H.              S  S  S  S    H          Q      S  S  E
|-15b17-----------17h19p17-15-|-----------------------------|
|-----------------------------|-15b17-----------------------|
|-----------------------------|-------------------12-12-----|
|-----------------------------|-------------------------14--|
|-----------------------------|-----------------------------|
|-----------------------------|-----------------------------|


  E                                                G
   Q          E.        E     S  E    E     E       Q          E.        E     S  E    E     E
|-------------0---------0-----0-------0----------|-------------3---------3-----3-------3----------|
|-------------0---------0-----0-------0----------|-------------3---------3-----3-------3----------|
|-------------0---------0-----0-------0----------|-------------0---------0-----0-------0----------|
|------------------------------------------------|-------------0---------0-----0-------0----------|
|------------------------------------------------|------------------------------------------------|
|--0-----------------------------0----------0----|--3-----------------------------3----------3----|
|
|  S  S  S  S S   S  S  S  S  S  S  S S  S  S  S    S  S  S  S S   S  S  S  S  S  S  S S  S  S  S
|------------------------------------------------|-12-12-------x--15-12-15-17-17-15----x-19-17-19-|
|-------------------------12-12-------x-15-12-15-|-------15-12----------------------17------------|
|-12-12-------x--14-12-14-------14-12------------|------------------------------------------------|
|-------14-12------------------------------------|------------------------------------------------|
|------------------------------------------------|------------------------------------------------|
|------------------------------------------------|------------------------------------------------|


  F#                                                 E
   Q           E.        E     S  E     E     E       Q           E.       E       S E E E
|--------------3---------3-----3--------3-----2----|--------------0--------0-------0---0------|
|--------------3---------3-----3--------3-----3----|--------------0--------0-------0---0------|
|--------------0---------0-----0--------0-----0----|--------------0--------0-------0---0------|
|--------------------------------------------------|------------------------------------------|
|--------------------------------------------------|------------------------------------------|
|--2------------------------------2----------------|--0------------------------------0---0----|
|
|                                                     |-------3-------|
|  S  S  S  S  S   S  S  S  S  S  S  S  S  S  S  S    Q     Q         Q       H
|-22-22-19-22-22--19-22-22-19-22-22-19-22-19-22-22-|-22b24-22b24=====22b24---22b24------------|
|--------------------------------------------------|------------------------------------------|
|--------------------------------------------------|------------------------------------------|
|--------------------------------------------------|------------------------------------------|
|--------------------------------------------------|------------------------------------------|
|--------------------------------------------------|------------------------------------------|


  E                                       G
   Q           E.       E       S E E E    Q           E.       E       S E E E
|--------------0--------0-------0---0---|--------------3--------3-------3---3---|
|--------------0--------0-------0---0---|--------------3--------3-------3---3---|
|--------------0--------0-------0---0---|--------------0--------0-------0---0---|
|---------------------------------------|--------------0--------0-------0---0---|
|---------------------------------------|---------------------------------------|
|--0------------------------------0---0-|--3------------------------------3---3-|
|
|  |-------3-------|                       |-------3-------|
|  Q     Q         Q       H               Q     Q         Q       H
|-22b24-22b24=====22b24---22b24---------|-22b24-22b24=====22b24---22b24---------|
|---------------------------------------|---------------------------------------|
|---------------------------------------|---------------------------------------|
|---------------------------------------|---------------------------------------|
|---------------------------------------|---------------------------------------|
|---------------------------------------|---------------------------------------|


  F#                         E
   Q    E.    E    S E E E    Q           E.       E       S E E E
|-------3-----3----3---3-2-|--------------0--------0-------0---0----*|
|-------3-----3----3---3-3-|--------------0--------0-------0---0----*|
|-------0-----0----0---0-0-|--------------0--------0-------0---0----*|
|--------------------------|----------------------------------------*|
|--------------------------|----------------------------------------*|
|--2-----------------2-----|--0------------------------------0---0--*|
|
|  |---3----|                 |-------3-------|
|  Q  Q     Q    H            Q     Q         Q       H
|-22-22----22---22---------|-22b24-22b24=====22b24---22b24----------*|
|--------------------------|----------------------------------------*|
|--------------------------|----------------------------------------*|
|--------------------------|----------------------------------------*|
|--------------------------|----------------------------------------*|
|--------------------------|----------------------------------------*|


Duration Legend
---------------
W - whole; H - half; Q - quarter; E - 8th; S - 16th; T - 32nd; X - 64th; a - acciaccatura
+ - note tied to previous; . - note dotted; .. - note double dotted
Uncapitalized letters represent notes that are staccato (1/2 duration)
Irregular groupings are notated above the duration line
Duration letters will always appear directly above the note/fret number it represents the
duration for.  Duration letters with no fret number below them represent rests.  Multi-
bar rests are notated in the form Wxn, where n is the number of bars to rest for.  Low
melody durations appear below the staff

Tablature Legend
----------------
 h   - hammer-on
 p   - pull-off
 b   - bend
 pb  - pre-bend
 r   - bend release (if no number after the r, then release immediately)
 /\  - slide into or out of (from/to "nowhere")
 s   - legato slide
 S   - shift slide
  - natural harmonic
[n]  - artificial harmonic
n(n) - tapped harmonic
 ~   - vibrato
 tr  - trill
 T   - tap
 TP  - trem. picking
 PM  - palm muting
\n/  - tremolo bar dip; n = amount to dip
 \n  - tremolo bar down
 n/  - tremolo bar up
/n\  - tremolo bar inverted dip
 =   - hold bend; also acts as connecting device for hammers/pulls
 <>  - volume swell (louder/softer)
 x   - on rhythm slash represents muted slash
 o   - on rhythm slash represents single note slash

Misc Legend
-----------
 |  - bar
||  - double bar
||o - repeat start
o|| - repeat end
*|  - double bar (ending)
 :  - bar (freetime)
 $  - Segno
 &  - Coda
Tempo markers -  = BPM(8/16=s8/s16), where s8 = swing 8ths, s16 = swing 16ths


***************************************************************************************
***************************************************************************************





Comments


Popular Quinn Peck tabs & chords
And Life Goes On Bass Tabs
Going Down Bass Tabs
Out In The Cold Bass Tabs
Wonderful Week Bass Tabs
Buy Yourself Tabs
Crystal Stairs Tabs
For You Tabs
Going Down Tabs
Shifting Time Tabs
The Midnight Sun Tabs


Song lyrics



↑ Back to top | Tablatures and chords are parodies/interpretations of the original songs. You may use it for private study, scholarship, research or language learning purposes only
© 2014 AZChords.com Contact us | Privacy policy | DMCA | Add/correct tabs | Request tabs | Top 50 tabs