>
 >
Shifting Time

Shifting Time Guitar Tabs

Quinn Peck - Shifting Time chords, tabs, tablatures, lyrics

Guitar lessons | Add/correct | Request | Top 50 tabs Artists:  A B C D E F G H I J K L M N O P Q R S T U V W X Y Z 0-9

Shifting Time Guitar Tabs – Quinn Peck

CD, Sheet music, Poster

Do you like Shifting Time? Share with your friends now
Tabs
#------------------------------------------------------------------------------##

                                  SHIFTING TIME
                            As recorded by Quinn Peck

Music by Quinn Peck
Arranged by Quinn Peck

Gtr I (E A D G B E) - 'Untitled'
Gtr II (E A D G B E) - 'Untitled'
Gtr III (E A D G B E) - 'Untitled'
Gtr IV (E A D G B E) - 'Untitled'
Gtr V (E A D G B E) - 'Untitled'

 Intro
  Q=115
  G5                       G5/D
 4/4
  Gtr II
  E S E S E. S S S E S S   E S E S E. S S S E S S
|-3-3-3-3-3--3-3-3-3-3-3-|-3-3-3-3-3--3-3-3-3-3-3-|
|-3-3-3-3-3--3-3-3-3-3-3-|-3-3-3-3-3--3-3-3-3-3-3-|
|-0-0-0-0-0--0-0-0-0-0-0-|------------------------|
|------------------------|-0-0-0-0-0--0-0-0-0-0-0-|
|------------------------|------------------------|
|------------------------|------------------------|


  G/B                      G5
  E S E S E. S S S E S S   E S E S E. S S S E S S
|-3-3-3-3-3--3-3-3-3-3-3-|-3-3-3-3-3--3-3-3-3-3-3-|
|-3-3-3-3-3--3-3-3-3-3-3-|-3-3-3-3-3--3-3-3-3-3-3-|
|------------------------|------------------------|
|------------------------|------------------------|
|-2-2-2-2-2--2-2-2-2-2-2-|------------------------|
|------------------------|-3-3-3-3-3--3-3-3-3-3-3-|


  G5                       B5/G
  E S E S E. S S S E S S   E S E S E. S S S E S S
|-3-3-3-3-3--3-3-3-3-3-3-|-2-2-2-2-2--2-2-2-2-2-2-|
|-3-3-3-3-3--3-3-3-3-3-3-|-0-0-0-0-0--0-0-0-0-0-0-|
|-0-0-0-0-0--0-0-0-0-0-0-|-0-0-0-0-0--0-0-0-0-0-0-|
|------------------------|------------------------|
|------------------------|------------------------|
|------------------------|------------------------|


  Am/E                     Am/E
  E S E S E. S S S E S S   E S E S E. S E E E
|------------------------|----------------2-2-|
|-1-1-1-1-1--1-1-1-1-1-1-|-1-1-1-1-1--1-1-3-3-|
|-2-2-2-2-2--2-2-2-2-2-2-|-2-2-2-2-2--2-2-2-2-|
|-2-2-2-2-2--2-2-2-2-2-2-|-2-2-2-2-2--2-2-----|
|------------------------|--------------------|
|------------------------|--------------------|


   Verse
    G5                                     B5/G
     E  S E    S E.     S  S S  S S  S S   E  S E    S E.     S  S S  S S  S S
||---3--3-3----3-3------3--3-3--3-3--3-3-|-2--2-2----2-2------2--2-2--2-2--2-2-|
||o--3--3-3----3-3------3--3-3--3-3--3-3-|-0--0-0----0-0------0--0-0--0-0--0-0-|
||---0--0-0----0-0------0--0-0--0-0--0-0-|-0--0-0----0-0------0--0-0--0-0--0-0-|
||---------------------------------------|-------------------------------------|
||o--------------------------------------|-------------------------------------|
||---------------------------------------|-------------------------------------|
|
|   Gtr I
|    E  E    E   S   E.    E    E    E     E  E    E   S   E.    E    E    E
||---------------------------------------|-------------------------------------|
||o--------------------------------------|-------------------------------------|
||----------12------12---------12--------|--------12------12---------12--------|
||-----12-----------------12--------12---|---12-----------------12--------12---|
||o-10-----------------------------------|-9-----------------------------------|
||---------------------------------------|-------------------------------------|


  Am/E                           Am/E
  E S E   S E.   S S S S S S S   E S E   S E.   S S S E  E
|------------------------------|----------------------2--2--||
|-1-1-1---1-1----1-1-1-1-1-1-1-|-1-1-1---1-1----1-1-1-3--3-o||
|-2-2-2---2-2----2-2-2-2-2-2-2-|-2-2-2---2-2----2-2-2-2--2--||
|-2-2-2---2-2----2-2-2-2-2-2-2-|-2-2-2---2-2----2-2-2-------||
|------------------------------|---------------------------o||
|------------------------------|----------------------------||
|
| E E   E   S  E S E   S E   S   E E   E   S  E S E   E  E
|------------------------------|----------------------------||
|-------8------8---8-----8-----|-------8------8---8--------o||
|---9-------9----9-----9-----9-|---9-------9----9-----9-11--||
|-7----------------------------|-7--------------------------||
|------------------------------|---------------------------o||
|------------------------------|----------------------------||


    G5                                    B5/G
     E  S E    S E.     S  S S  S S S S   E  S E    S E.    S  S S  S S  S S
||---3--3-3----3-3------3--3-3--3-3-3-3-|-2--2-2----2-2-----2--2-2--2-2--2-2-|
||o--3--3-3----3-3------3--3-3--3-3-3-3-|-0--0-0----0-0-----0--0-0--0-0--0-0-|
||---0--0-0----0-0------0--0-0--0-0-0-0-|-0--0-0----0-0-----0--0-0--0-0--0-0-|
||--------------------------------------|------------------------------------|
||o-------------------------------------|------------------------------------|
||--------------------------------------|------------------------------------|
|
|    E  E    E   S   E.    E    E   S S   E  E    E   S  E.    E    E    E
||--------------------------------------|------------------------------------|
||o----------------------------12---x-x-|--------------------------12--------|
||----------12-----------------12---x-x-|--------12----------------12--------|
||-----12---12------------12--------x-x-|---12---12-----------12--------12---|
||o-10--------------10--------------x-x-|-9--------------9-------------------|
||--------------------------------------|------------------------------------|


  Am/E                            Am/E
  E S E   S E.    S S S S S S S   E S E   S E.    S S S E E
|-------------------------------|-----------------------2-2--||
|-1-1-1---1-1-----1-1-1-1-1-1-1-|-1-1-1---1-1-----1-1-1-3-3-o||
|-2-2-2---2-2-----2-2-2-2-2-2-2-|-2-2-2---2-2-----2-2-2-2-2--||
|-2-2-2---2-2-----2-2-2-2-2-2-2-|-2-2-2---2-2-----2-2-2------||
|-------------------------------|---------------------------o||
|-------------------------------|----------------------------||
|
| E E   E   S  E.   E   E   E     E E   E   S  E.   E   E E
|-----------------------7-------|--------------7-------------||
|-------8---------------8-------|-------8-----------8-------o||
|---9---9-----------9-----------|---9---9---------------9----||
|-7-----------------------------|-7-----------------------7--||
|--------------7----------------|---------------------------o||
|-------------------------------|----------------------------||


 Chorus
  G5                           D
  Gtr II
  E  S E  S E.   S S S E S S   E  S E  S E.   S S S E S S
|-3--3-3--3-3----3-3-3-3-3-3-|-2--2-2--2-2----2-2-2-2-2-2-|
|-3--3-3--3-3----3-3-3-3-3-3-|-3--3-3--3-3----3-3-3-3-3-3-|
|-0--0-0--0-0----0-0-0-0-0-0-|-2--2-2--2-2----2-2-2-2-2-2-|
|----------------------------|-0--0-0--0-0----0-0-0-0-0-0-|
|----------------------------|----------------------------|
|----------------------------|----------------------------|
|
| Gtr I
| E.   E.   E  H               E.   E.   E  Q       E E
|--------------3-------------|----------------------2-3---|
|------3-------3-------------|------3---------------------|
|-0---------0--0-------------|-2---------2----------------|
|----------------------------|--------------0-------------|
|----------------------------|----------------------------|
|----------------------------|----------------------------|


  Em7/C                      G
  E  S E  S E.   S S S E E   E S E S E. S S S E S S
|----------------------2-2-|-3-3-3-3-3--3-3-3-3-3-3--|
|-3--3-3--3-3----3-3-3-3-3-|-3-3-3-3-3--3-3-3-3-3-3--|
|-0--0-0--0-0----0-0-0-2-2-|-0-0-0-0-0--0-0-0-0-0-0--|
|-2--2-2--2-2----2-2-2-0-0-|-0-0-0-0-0--0-0-0-0-0-0--|
|-3--3-3--3-3----3-3-3-----|-2-2-2-2-2--2-2-2-2-2-2--|
|--------------------------|-3-3-3-3-3--3-3-3-3-3-3--|
|
| E.   E.   E  Q       E E   W
|----------------------2-3-|-3-----------------------|
|------3-------------------|-3-----------------------|
|--------------------------|-0-----------------------|
|-2---------2--------------|-0-----------------------|
|--------------3-----------|-2-----------------------|
|--------------------------|-3-----------------------|


  G5                           D
  E  S E  S E.   S S S E S S   E  S E  S E.   S S S E S S
|-3--3-3--3-3----3-3-3-3-3-3-|-2--2-2--2-2----2-2-2-2-2-2-|
|-3--3-3--3-3----3-3-3-3-3-3-|-3--3-3--3-3----3-3-3-3-3-3-|
|-0--0-0--0-0----0-0-0-0-0-0-|-2--2-2--2-2----2-2-2-2-2-2-|
|----------------------------|-0--0-0--0-0----0-0-0-0-0-0-|
|----------------------------|----------------------------|
|----------------------------|----------------------------|
|
| E.   E.   E  H               E.   E.   E  E   E   Q
|--------------3-------------|----------------------2-----|
|------3-------3-------------|------3-----------3---------|
|-0---------0--0-------------|-2---------2----------------|
|----------------------------|--------------0-------------|
|----------------------------|----------------------------|
|----------------------------|----------------------------|


  Em7/C                      G
  E  S E  S E.   S S S E E   E S E S E. S S S E S S
|----------------------2-2-|-3-3-3-3-3--3-3-3-3-3-3--|
|-3--3-3--3-3----3-3-3-3-3-|-3-3-3-3-3--3-3-3-3-3-3--|
|-0--0-0--0-0----0-0-0-2-2-|-0-0-0-0-0--0-0-0-0-0-0--|
|-2--2-2--2-2----2-2-2-0-0-|-0-0-0-0-0--0-0-0-0-0-0--|
|-3--3-3--3-3----3-3-3-----|-2-2-2-2-2--2-2-2-2-2-2--|
|--------------------------|-3-3-3-3-3--3-3-3-3-3-3--|
|
| E.   E.   E  Q       E E   W
|----------------------2-3-|-3-----------------------|
|------3-------------------|-3-----------------------|
|--------------------------|-0-----------------------|
|-2---------2--------------|-0-----------------------|
|--------------3-----------|-2-----------------------|
|--------------------------|-3-----------------------|


   Verse
    G5
     E     S  E     S  E.         S  S  S  S  S  S  S
||---3-----3--3-----3--3----------3--3--3--3--3--3--3-|
||o--3-----3--3-----3--3----------3--3--3--3--3--3--3-|
||---0-----0--0-----0--0----------0--0--0--0--0--0--0-|
||----------------------------------------------------|
||o---------------------------------------------------|
||----------------------------------------------------|
|
|    E     E     E     S   E.        E     E     E
||----------------------------------------------------|
||o---------------------------------------------------|
||--------------12--------12--------------12----------|
||--------12------------------------12----------12----|
||o-10------------------------------------------------|
||----------------------------------------------------|
|
|   Gtr III
|    S  S  S  S  S  S  S   S   S  S  S  S  S  S  S  S
||--15-19-15-19-15-19-15--19--15-19-15-19-15-19-15-19-|
||o---------------------------------------------------|
||----------------------------------------------------|
||----------------------------------------------------|
||o---------------------------------------------------|
||----------------------------------------------------|


  B5/G
   E     S  E     S  E.         S  S  S  S  S  S  S
|--2-----2--2-----2--2----------2--2--2--2--2--2--2--|
|--0-----0--0-----0--0----------0--0--0--0--0--0--0--|
|--0-----0--0-----0--0----------0--0--0--0--0--0--0--|
|----------------------------------------------------|
|----------------------------------------------------|
|----------------------------------------------------|
|
|  E     E     E     S   E.        E     E     E
|----------------------------------------------------|
|----------------------------------------------------|
|-------------12--------12--------------12-----------|
|-------12------------------------12----------12-----|
|--9-------------------------------------------------|
|----------------------------------------------------|
|
|  S  S  S  S  S  S  S   S   S  S  S  S  S  S  S  S
|-14-19-14-19-14-19-14--19--14-19-14-19-14-19-14-19--|
|----------------------------------------------------|
|----------------------------------------------------|
|----------------------------------------------------|
|----------------------------------------------------|
|----------------------------------------------------|


  Am/E
   E     S  E     S  E.        S  S  S  S  S  S  S
|--------------------------------------------------|
|--1-----1--1-----1--1---------1--1--1--1--1--1--1-|
|--2-----2--2-----2--2---------2--2--2--2--2--2--2-|
|--2-----2--2-----2--2---------2--2--2--2--2--2--2-|
|--------------------------------------------------|
|--------------------------------------------------|
|
|  E     E     E     S   E     S  E     S  E     S
|--------------------------------------------------|
|--------------8---------8--------8--------8-------|
|--------9-----------9---------9--------9--------9-|
|--7-----------------------------------------------|
|--------------------------------------------------|
|--------------------------------------------------|
|
|  S  S  S  S  S  S  S   S  S  S  S  S  S  S  S  S
|----12-15-12----12-15--12----12-15-12----12-15-12-|
|-12----------12-----------12----------12----------|
|--------------------------------------------------|
|--------------------------------------------------|
|--------------------------------------------------|
|--------------------------------------------------|


  Am/E
   E     S  E     S  E.        S  S  S  E     E
|---------------------------------------2-----2-----||
|--1-----1--1-----1--1---------1--1--1--3-----3----o||
|--2-----2--2-----2--2---------2--2--2--2-----2-----||
|--2-----2--2-----2--2---------2--2--2--------------||
|--------------------------------------------------o||
|---------------------------------------------------||
|
|  E     E     E     S   E     S  E     E     E
|---------------------------------------------------||
|--------------8---------8--------8----------------o||
|--------9-----------9---------9--------9----11-----||
|--7------------------------------------------------||
|--------------------------------------------------o||
|---------------------------------------------------||
|
|  S  S  S  S  S  S  S   S  S  S  S  S  S  S  S  S
|----12-15-12----12-15--12----12-15-12-14-15-14-15--||
|-12----------12-----------12----------------------o||
|---------------------------------------------------||
|---------------------------------------------------||
|--------------------------------------------------o||
|---------------------------------------------------||


    G5
     E     S  E     S  E.         S  S  S  S  S  S  S
||---3-----3--3-----3--3----------3--3--3--3--3--3--3-|
||o--3-----3--3-----3--3----------3--3--3--3--3--3--3-|
||---0-----0--0-----0--0----------0--0--0--0--0--0--0-|
||----------------------------------------------------|
||o---------------------------------------------------|
||----------------------------------------------------|
|
|    E     E     E     S   E.        E     E     E
||----------------------------------------------------|
||o---------------------------------------12----------|
||--------------12------------------------12----------|
||--------12----12------------------12----------------|
||o-10--------------------10--------------------------|
||----------------------------------------------------|
|
|    S  S  S  S  S  S  S   S   S  S  S  S  S  S  S  S
||--15-19-15-19-15-19-15--19--15-19-15-19-15-19-15-19-|
||o---------------------------------------------------|
||----------------------------------------------------|
||----------------------------------------------------|
||o---------------------------------------------------|
||----------------------------------------------------|


  B5/G
   E     S  E     S  E.         S  S  S  S  S  S  S
|--2-----2--2-----2--2----------2--2--2--2--2--2--2--|
|--0-----0--0-----0--0----------0--0--0--0--0--0--0--|
|--0-----0--0-----0--0----------0--0--0--0--0--0--0--|
|----------------------------------------------------|
|----------------------------------------------------|
|----------------------------------------------------|
|
|  E     E     E     S   E.        E     E     E
|----------------------------------------------------|
|---------------------------------------12-----------|
|-------------12------------------------12-----------|
|-------12----12------------------12----------12-----|
|--9---------------------9---------------------------|
|----------------------------------------------------|
|
|  S  S  S  S  S  S  S   S   S  S  S  S  S  S  S  S
|-14-19-14-19-14-19-14--19--14-19-14-19-14-19-14-19--|
|----------------------------------------------------|
|----------------------------------------------------|
|----------------------------------------------------|
|----------------------------------------------------|
|----------------------------------------------------|


  Am/E
   E     S  E     S  E.         S  S  S  S  S  S  S
|---------------------------------------------------|
|--1-----1--1-----1--1----------1--1--1--1--1--1--1-|
|--2-----2--2-----2--2----------2--2--2--2--2--2--2-|
|--2-----2--2-----2--2----------2--2--2--2--2--2--2-|
|---------------------------------------------------|
|---------------------------------------------------|
|
|  E     E     E     S   E.        E     E     E
|----------------------------------------7----------|
|--------------8-------------------------8----------|
|--------9-----9-------------------9----------------|
|--7------------------------------------------------|
|------------------------7--------------------------|
|---------------------------------------------------|
|
|  S  S  S  S  S  S  S   S   S  S  S  S  S  S  S  S
|----12-15-12----12-15--12-----12-15-12----12-15-12-|
|-12----------12------------12----------12----------|
|---------------------------------------------------|
|---------------------------------------------------|
|---------------------------------------------------|
|---------------------------------------------------|


  Am/E
   E     S  E     S  E.         S  S  S  E     E
|----------------------------------------2-----2-----||
|--1-----1--1-----1--1----------1--1--1--3-----3----o||
|--2-----2--2-----2--2----------2--2--2--2-----2-----||
|--2-----2--2-----2--2----------2--2--2--------------||
|---------------------------------------------------o||
|----------------------------------------------------||
|
|  E     E     E     S   E.        E     E     E
|------------------------7---------------------------||
|--------------8-------------------8----------------o||
|--------9-----9-------------------------9-----------||
|--7-------------------------------------------7-----||
|---------------------------------------------------o||
|----------------------------------------------------||
|
|  S  S  S  S  S  S  S   S   S  S  S  S  S  S  S  S
|----12-15-12----12-15--12-----12-15-12-14-15-14-15--||
|-12----------12------------12----------------------o||
|----------------------------------------------------||
|----------------------------------------------------||
|---------------------------------------------------o||
|----------------------------------------------------||


 Chorus
  G5                           D
  Gtr II
  E  S E  S E.   S S S E S S   E  S E  S E.   S S S E S S
|-3--3-3--3-3----3-3-3-3-3-3-|-2--2-2--2-2----2-2-2-2-2-2-|
|-3--3-3--3-3----3-3-3-3-3-3-|-3--3-3--3-3----3-3-3-3-3-3-|
|-0--0-0--0-0----0-0-0-0-0-0-|-2--2-2--2-2----2-2-2-2-2-2-|
|----------------------------|-0--0-0--0-0----0-0-0-0-0-0-|
|----------------------------|----------------------------|
|----------------------------|----------------------------|
|
| Gtr I
| E.   E.   E  H               E.   E.   E  Q       E E
|--------------3-------------|----------------------2-3---|
|------3-------3-------------|------3---------------------|
|-0---------0--0-------------|-2---------2----------------|
|----------------------------|--------------0-------------|
|----------------------------|----------------------------|
|----------------------------|----------------------------|


  Em7/C                      G
  E  S E  S E.   S S S E E   E S E S E. S S S E S S
|----------------------2-2-|-3-3-3-3-3--3-3-3-3-3-3--|
|-3--3-3--3-3----3-3-3-3-3-|-3-3-3-3-3--3-3-3-3-3-3--|
|-0--0-0--0-0----0-0-0-2-2-|-0-0-0-0-0--0-0-0-0-0-0--|
|-2--2-2--2-2----2-2-2-0-0-|-0-0-0-0-0--0-0-0-0-0-0--|
|-3--3-3--3-3----3-3-3-----|-2-2-2-2-2--2-2-2-2-2-2--|
|--------------------------|-3-3-3-3-3--3-3-3-3-3-3--|
|
| E.   E.   E  Q       E E   W
|----------------------2-3-|-3-----------------------|
|------3-------------------|-3-----------------------|
|--------------------------|-0-----------------------|
|-2---------2--------------|-0-----------------------|
|--------------3-----------|-2-----------------------|
|--------------------------|-3-----------------------|


  G5                           D
  E  S E  S E.   S S S E S S   E  S E  S E.   S S S E S S
|-3--3-3--3-3----3-3-3-3-3-3-|-2--2-2--2-2----2-2-2-2-2-2-|
|-3--3-3--3-3----3-3-3-3-3-3-|-3--3-3--3-3----3-3-3-3-3-3-|
|-0--0-0--0-0----0-0-0-0-0-0-|-2--2-2--2-2----2-2-2-2-2-2-|
|----------------------------|-0--0-0--0-0----0-0-0-0-0-0-|
|----------------------------|----------------------------|
|----------------------------|----------------------------|
|
| E.   E.   E  H               E.   E.   E  E   E   Q
|--------------3-------------|----------------------2-----|
|------3-------3-------------|------3-----------3---------|
|-0---------0--0-------------|-2---------2----------------|
|----------------------------|--------------0-------------|
|----------------------------|----------------------------|
|----------------------------|----------------------------|


  Em7/C                      G
  E  S E  S E.   S S S E E   E S E S E. S S S E S S
|----------------------2-2-|-3-3-3-3-3--3-3-3-3-3-3--|
|-3--3-3--3-3----3-3-3-3-3-|-3-3-3-3-3--3-3-3-3-3-3--|
|-0--0-0--0-0----0-0-0-2-2-|-0-0-0-0-0--0-0-0-0-0-0--|
|-2--2-2--2-2----2-2-2-0-0-|-0-0-0-0-0--0-0-0-0-0-0--|
|-3--3-3--3-3----3-3-3-----|-2-2-2-2-2--2-2-2-2-2-2--|
|--------------------------|-3-3-3-3-3--3-3-3-3-3-3--|
|
| E.   E.   E  Q       E E   W
|----------------------2-3-|-3-----------------------|
|------3-------------------|-3-----------------------|
|--------------------------|-0-----------------------|
|-2---------2--------------|-0-----------------------|
|--------------3-----------|-2-----------------------|
|--------------------------|-3-----------------------|


 Bridge
  G                  G
  Gtr II
  Q.    H      S S   Q.    H        S S
|-3-----3------x-x-|-3-----3--------x-x-|
|-3-----3------x-x-|-3-----3--------x-x-|
|-0-----0------x-x-|-0-----0--------x-x-|
|-0-----0------x-x-|-0-----0--------x-x-|
|-2-----2------x-x-|-2-----2--------x-x-|
|-3-----3------x-x-|-3-----3--------x-x-|
|
| Gtr I
| E. E. Q  E E E     E. E. Q  E S S E
|----------3---3---|----------3-----3---|
|-------3----3-----|-------3------3-----|
|----0-------------|----0-------0-------|
|-0----------------|-0------------------|
|------------------|--------------------|
|------------------|--------------------|


  Em7/C              G/B
  Q.    H      S S   Q.    H      S S
|-3-----3------x-x-|------------------|
|-3-----3------x-x-|-3-----3------x-x-|
|-0-----0------x-x-|-0-----0------x-x-|
|-2-----2------x-x-|-0-----0------x-x-|
|-3-----3------x-x-|-2-----2------x-x-|
|------------------|------------------|
|
| E. E. Q  E E E     E. E. Q  E E E
|------------------|------------------|
|----------3-------|----------3---3---|
|-------0----0-----|-------0----0-----|
|----2---------2---|----0-------------|
|-3----------------|-2----------------|
|------------------|------------------|


  G                  G
  Q.    H      S S   Q.    H        S S
|-3-----3------x-x-|-3-----3--------x-x-|
|-3-----3------x-x-|-3-----3--------x-x-|
|-0-----0------x-x-|-0-----0--------x-x-|
|-0-----0------x-x-|-0-----0--------x-x-|
|-2-----2------x-x-|-2-----2--------x-x-|
|-3-----3------x-x-|-3-----3--------x-x-|
|
| E. E. Q  E E E     E. E. Q  E S S E
|----------3---3---|----------3-----3---|
|-------3----3-----|-------3------3-----|
|----0-------------|----0-------0-------|
|-0----------------|-0------------------|
|------------------|--------------------|
|------------------|--------------------|


  Em7/C              G/B
  Q.    H      S S   Q.    H      S S
|-3-----3------x-x-|------------------|
|-3-----3------x-x-|-3-----3------x-x-|
|-0-----0------x-x-|-0-----0------x-x-|
|-2-----2------x-x-|-0-----0------x-x-|
|-3-----3------x-x-|-2-----2------x-x-|
|------------------|------------------|
|
| E. E. Q  E E E     E. E. Q  E E E
|------------------|------------2-3---|
|----------3-------|----------3-------|
|-------0----0-----|-------0----------|
|----2---------2---|----0-------------|
|-3----------------|-2----------------|
|------------------|------------------|


  G5                           G5/D
  Gtr II
  E S E S E.     S S S E S S   E S E S E.     S S S E S S
|-3-3-3-3-3------3-3-3-3-3-3-|-3-3-3-3-3------3-3-3-3-3-3-|
|-3-3-3-3-3------3-3-3-3-3-3-|-3-3-3-3-3------3-3-3-3-3-3-|
|-0-0-0-0-0------0-0-0-0-0-0-|----------------------------|
|----------------------------|-0-0-0-0-0------0-0-0-0-0-0-|
|----------------------------|----------------------------|
|----------------------------|----------------------------|
|
| H          +E    E   E E     H          +E    E   E E
|-3----------(3)-------2-3---|-3----------(3)-------2-3---|
|-3----------(3)---3---------|-3----------(3)---3---3-----|
|-0----------(0)-------------|-0----------(0)---0-----0---|
|----------------------------|----------------------------|
|----------------------------|----------------------------|
|----------------------------|----------------------------|


  G/B                          G5
  Gtr II
  E S E S E.     S S S E S S   E S E S E. S S S E S S
|-3-3-3-3-3------3-3-3-3-3-3-|-3-3-3-3-3--3-3-3-3-3-3-|
|-3-3-3-3-3------3-3-3-3-3-3-|-3-3-3-3-3--3-3-3-3-3-3-|
|----------------------------|------------------------|
|----------------------------|------------------------|
|-2-2-2-2-2------2-2-2-2-2-2-|------------------------|
|----------------------------|-3-3-3-3-3--3-3-3-3-3-3-|
|
| H          +E    E   E E     W
|-3----------(3)-------2-3---|-3----------------------|
|-3----------(3)---3---------|-3----------------------|
|-0----------(0)-------------|-0----------------------|
|----------------------------|-0----------------------|
|----------------------------|-2----------------------|
|----------------------------|-3----------------------|


  G5                         D
   E  S E S E. S S S E S S   E S E S E. S S S E S S
|--3--3-3-3-3--3-3-3-3-3-3-|-2-2-2-2-2--2-2-2-2-2-2-|
|--3--3-3-3-3--3-3-3-3-3-3-|-3-3-3-3-3--3-3-3-3-3-3-|
|--0--0-0-0-0--0-0-0-0-0-0-|-2-2-2-2-2--2-2-2-2-2-2-|
|--------------------------|-0-0-0-0-0--0-0-0-0-0-0-|
|--------------------------|------------------------|
|--------------------------|------------------------|
|
|  >
| +W                         W
|-(3)----------------------|------------------------|
|-(3)----------------------|------------------------|
|-(0)----------------------|------------------------|
|-(0)----------------------|------------------------|
|-(2)----------------------|------------------------|
|-(3)----------------------|------------------------|


  Em7/C                  G
  E S E S E. S S S E E   E S E S E. S S S E S S
|------------------2-2-|-3-3-3-3-3--3-3-3-3-3-3-|
|-3-3-3-3-3--3-3-3-3-3-|-3-3-3-3-3--3-3-3-3-3-3-|
|-0-0-0-0-0--0-0-0-2-2-|-0-0-0-0-0--0-0-0-0-0-0-|
|-2-2-2-2-2--2-2-2-0-0-|-0-0-0-0-0--0-0-0-0-0-0-|
|-3-3-3-3-3--3-3-3-----|-2-2-2-2-2--2-2-2-2-2-2-|
|----------------------|-3-3-3-3-3--3-3-3-3-3-3-|


 Guitar Solo
          G5                           D
          Gtr II
           E  S E S E. S S S   E S S    E  S E S E. S S S  E  S S
|----------3--3-3-3-3--3-3-3---3-3-3-|--2--2-2-2-2--2-2-2--2--2-2-|
|----------3--3-3-3-3--3-3-3---3-3-3-|--3--3-3-3-3--3-3-3--3--3-3-|
|----------0--0-0-0-0--0-0-0---0-0-0-|--2--2-2-2-2--2-2-2--2--2-2-|
|------------------------------------|--0--0-0-0-0--0-0-0--0--0-0-|
|------------------------------------|----------------------------|
|------------------------------------|----------------------------|
|
| Gtr IV
|          ~~~                          ~~~
| a a a a  H.                  Q        H.                 E  E
|---------15-----------------/15-----|-14-----------------14-15---|
|-------x----------------------------|----------------------------|
|-----x------------------------------|----------------------------|
|---x--------------------------------|----------------------------|
|-x----------------------------------|----------------------------|
|------------------------------------|----------------------------|


  Em7/C                     G
   E  S E S E. S S S  E E    E  S E S E.     S S S E   S S
|---------------------2-2-|--3--3-3-3-3------3-3-3-3---3-3-|
|--3--3-3-3-3--3-3-3--3-3-|--3--3-3-3-3------3-3-3-3---3-3-|
|--0--0-0-0-0--0-0-0--2-2-|--0--0-0-0-0------0-0-0-0---0-0-|
|--2--2-2-2-2--2-2-2--0-0-|--0--0-0-0-0------0-0-0-0---0-0-|
|--3--3-3-3-3--3-3-3------|--2--2-2-2-2------2-2-2-2---2-2-|
|-------------------------|--3--3-3-3-3------3-3-3-3---3-3-|
|
|  ~~~                       ~~~
|  H.                 Q      W
|-12-----------------14---|-15-----------------------------|
|-------------------------|--------------------------------|
|-------------------------|--------------------------------|
|-------------------------|--------------------------------|
|-------------------------|--------------------------------|
|-------------------------|--------------------------------|
|
| Gtr V
|  <
|  W                        +H           +Q        S S S S
|-------------------------|------------------------2h3p2---|
|-------------------------|------------------------------3-|
|--0----------------------|-(0)----------(0)---------------|
|-------------------------|--------------------------------|
|-------------------------|--------------------------------|
|-------------------------|--------------------------------|


  G5
           E  S E S E.     S S S  E       S S
|----------3--3-3-3-3------3-3-3--3-------3-3-|
|----------3--3-3-3-3------3-3-3--3-------3-3-|
|----------0--0-0-0-0------0-0-0--0-------0-0-|
|---------------------------------------------|
|---------------------------------------------|
|---------------------------------------------|
|
|          ~~~
| a a a a  H.                     E       E
|---------15---------------------15b17r==15---|
|-------x-------------------------------------|
|-----x---------------------------------------|
|---x-----------------------------------------|
|-x-------------------------------------------|
|---------------------------------------------|
|
|          H           +E    S S  S    S  S S
|---------------------------------2h===3p=2---|
|----------3-----------(3)-----3------------3-|
|----------------------------0----------------|
|---------------------------------------------|
|---------------------------------------------|
|---------------------------------------------|


  D
   E S E    S  E.      S S S E   S S
|--2-2-2----2--2-------2-2-2-2---2-2--|
|--3-3-3----3--3-------3-3-3-3---3-3--|
|--2-2-2----2--2-------2-2-2-2---2-2--|
|--0-0-0----0--0-------0-0-0-0---0-0--|
|-------------------------------------|
|-------------------------------------|
|
|                   ~~~~
|  Q      E    E   +H
|-14----------------------------------|
|--------15---15--(15)----------------|
|-------------------------------------|
|-------------------------------------|
|-------------------------------------|
|-------------------------------------|
|
|  H               +E    S S S S S S
|----------------------------2h3p2----|
|--3---------------(3)-----3-------3--|
|------------------------0------------|
|-------------------------------------|
|-------------------------------------|
|-------------------------------------|


  Em7/C                               G
   E S E S E.      S  S S  E    E      E S E S E.     S S  S  E     S  S
|--------------------------2----2---|--3-3-3-3-3------3-3--3--3-----3--3-|
|--3-3-3-3-3-------3--3-3--3----3---|--3-3-3-3-3------3-3--3--3-----3--3-|
|--0-0-0-0-0-------0--0-0--2----2---|--0-0-0-0-0------0-0--0--0-----0--0-|
|--2-2-2-2-2-------2--2-2--0----0---|--0-0-0-0-0------0-0--0--0-----0--0-|
|--3-3-3-3-3-------3--3-3-----------|--2-2-2-2-2------2-2--2--2-----2--2-|
|-----------------------------------|--3-3-3-3-3------3-3--3--3-----3--3-|
|
|  ~~                                  ~~
|  H           +E     E    E    E      W
|-12----------(12)--------12---14---|-15---------------------------------|
|--------------------15-------------|------------------------------------|
|-----------------------------------|------------------------------------|
|-----------------------------------|------------------------------------|
|-----------------------------------|------------------------------------|
|-----------------------------------|------------------------------------|
|
|  H           +E     S S  S S  S S    H          +E    S  S  S  S  S  S
|--------------------------2h3p=2---|------------------------14h15p14-12-|
|--3-----------(3)------3---------3-|--3----------(3)-----15-------------|
|---------------------0-------------|-------------------0----------------|
|-----------------------------------|------------------------------------|
|-----------------------------------|------------------------------------|
|-----------------------------------|------------------------------------|


  G5
   E     S  E     S  E.       S  S  S  E        S    S
|--3-----3--3-----3--3--------3--3--3--3--------3----3----|
|--3-----3--3-----3--3--------3--3--3--3--------3----3----|
|--0-----0--0-----0--0--------0--0--0--0--------0----0----|
|---------------------------------------------------------|
|---------------------------------------------------------|
|---------------------------------------------------------|
|
|                                      |--3--|  |---3---|
|  S  S  S  S  S  S  S  S  S  S  S  S  S  S  S  S  S    S
|-15p14p12-15p14p12-15p14p12-15p14p12-15p14p12-15p14p==12-|
|---------------------------------------------------------|
|---------------------------------------------------------|
|---------------------------------------------------------|
|---------------------------------------------------------|
|---------------------------------------------------------|
|
|                                      |--3--|  |---3---|
|  S  S  S  S  S  S  S  S  S  S  S  S  S  S  S  S  S    S
|-15p14p12-15p14p12-15p14p12-15p14p12-15p14p12-15p14p==12-|
|---------------------------------------------------------|
|---------------------------------------------------------|
|---------------------------------------------------------|
|---------------------------------------------------------|
|---------------------------------------------------------|


  D
   E     S  E     S  E.       S  S  S  E        S    S
|--2-----2--2-----2--2--------2--2--2--2--------2----2----|
|--3-----3--3-----3--3--------3--3--3--3--------3----3----|
|--2-----2--2-----2--2--------2--2--2--2--------2----2----|
|--0-----0--0-----0--0--------0--0--0--0--------0----0----|
|---------------------------------------------------------|
|---------------------------------------------------------|
|
|                                      |--3--|  |---3---|
|  S  S  S  S  S  S  S  S  S  S  S  S  S  S  S  S  S    S
|-14p12p10-14p12p10-14p12p10-14p12p10-14p12p10-14p12p==10-|
|---------------------------------------------------------|
|---------------------------------------------------------|
|---------------------------------------------------------|
|---------------------------------------------------------|
|---------------------------------------------------------|
|
|                                      |--3--|  |---3---|
|  S  S  S  S  S  S  S  S  S  S  S  S  S  S  S  S  S    S
|-17p15p14-17p15p14-17p15p14-17p15p14-17p15p14-17p15p==14-|
|---------------------------------------------------------|
|---------------------------------------------------------|
|---------------------------------------------------------|
|---------------------------------------------------------|
|---------------------------------------------------------|


  Em7/C
   E     S  E     S  E.       S  S  S  E        E
|--------------------------------------2--------2-------|
|--3-----3--3-----3--3--------3--3--3--3--------3-------|
|--0-----0--0-----0--0--------0--0--0--2--------2-------|
|--2-----2--2-----2--2--------2--2--2--0--------0-------|
|--3-----3--3-----3--3--------3--3--3-------------------|
|-------------------------------------------------------|
|
|                                      |--3--|  |--3--|
|  S  S  S  S  S  S  S  S  S  S  S  S  S  S  S  S  S  S
|-12p10p=8-12p10p=8-12p10p=8-12p10p=8-12p10p=8-12p10p=8-|
|-------------------------------------------------------|
|-------------------------------------------------------|
|-------------------------------------------------------|
|-------------------------------------------------------|
|-------------------------------------------------------|
|
|                                      |--3--|  |--3--|
|  S  S  S  S  S  S  S  S  S  S  S  S  S  S  S  S  S  S
|-15p14p12-15p14p12-15p14p12-15p14p12-15p14p12-15p14p12-|
|-------------------------------------------------------|
|-------------------------------------------------------|
|-------------------------------------------------------|
|-------------------------------------------------------|
|-------------------------------------------------------|


  G
   E     S  E     S  E.      S S S E     S   S
|--3-----3--3-----3--3-------3-3-3-3-----3---3----|
|--3-----3--3-----3--3-------3-3-3-3-----3---3----|
|--0-----0--0-----0--0-------0-0-0-0-----0---0----|
|--0-----0--0-----0--0-------0-0-0-0-----0---0----|
|--2-----2--2-----2--2-------2-2-2-2-----2---2----|
|--3-----3--3-----3--3-------3-3-3-3-----3---3----|
|
|                                  |-3-| |--3--|
|  S  S  S  S  S  S  S  S S  S S S S S S S S   S
|-10p=8p=7--8p=7p=5--7p=5p3--5p3p2-3p2---2--------|
|--------------------------------------3---3------|
|----------------------------------------------4--|
|-------------------------------------------------|
|-------------------------------------------------|
|-------------------------------------------------|
|
|                                  |-3-| |--3--|
|  S  S  S  S  S  S  S  S S  S S S S S S S S   S
|-15p14p12-14p12p10-12p10p8-10p8p7-8p7p5-7p5p==3--|
|-------------------------------------------------|
|-------------------------------------------------|
|-------------------------------------------------|
|-------------------------------------------------|
|-------------------------------------------------|


  G5                                 D
   E   S E   S E.    S S S E   S S   E   S E   S E.    S S S E   S S
|--3---3-3---3-3-----3-3-3-3---3-3-|-2---2-2---2-2-----2-2-2-2---2-2-|
|--3---3-3---3-3-----3-3-3-3---3-3-|-3---3-3---3-3-----3-3-3-3---3-3-|
|--0---0-0---0-0-----0-0-0-0---0-0-|-2---2-2---2-2-----2-2-2-2---2-2-|
|----------------------------------|-0---0-0---0-0-----0-0-0-0---0-0-|
|----------------------------------|---------------------------------|
|----------------------------------|---------------------------------|
|
|  S S S S S S S S S S S S S S S S   S S S S S S S S S S S S S S S S
|----------------------------------|---------------------------------|
|----------------------------------|---------------------------------|
|--5p0-0-4p0-0-2p0-0-0-2p0-4p0-5p0-|-7p0-0-5p0-0-4p0-0-0-4p0-5p0-7p0-|
|----------------------------------|---------------------------------|
|----------------------------------|---------------------------------|
|----------------------------------|---------------------------------|
|
|  S S S S S S S S S S S S S S S S   S S S S S S S S S S S S S S S S
|----------------------------------|---------------------------------|
|----------------------------------|---------------------------------|
|------------------------------0---|-----------------------------0---|
|-10-0-0-9-0-0-7-0-0-0-7-0-9-0-0-0-|-7-0-0-5-0-0-5-0-0-0-7-0-5-0-0-0-|
|----------------------------------|---------------------------------|
|----------------------------------|---------------------------------|


  Em7/C                               G
   E   S E   S E.    S S S E    E      E   S  E   S  E.    S  S S  E    S S
|--------------------------2----2---|--3---3--3---3--3-----3--3-3--3----3-3-|
|--3---3-3---3-3-----3-3-3-3----3---|--3---3--3---3--3-----3--3-3--3----3-3-|
|--0---0-0---0-0-----0-0-0-2----2---|--0---0--0---0--0-----0--0-0--0----0-0-|
|--2---2-2---2-2-----2-2-2-0----0---|--0---0--0---0--0-----0--0-0--0----0-0-|
|--3---3-3---3-3-----3-3-3----------|--2---2--2---2--2-----2--2-2--2----2-2-|
|-----------------------------------|--3---3--3---3--3-----3--3-3--3----3-3-|
|
|  S S S S S S S S S S S S S S  S S    S S S  S S S  S S S S  S S  S S  S S
|-----------------------------------|---------------------------------------|
|-----------------------------------|---------------------------------------|
|--9p0-0-7p0-0-5p0-0-0-5p0-7p0-11p0-|-12p0-0-11p0-0-12p0-0-0-11p0-12p0-11-0-|
|-----------------------------------|---------------------------------------|
|-----------------------------------|---------------------------------------|
|-----------------------------------|---------------------------------------|
|
|  S S S S S S S S S S S S S S  S S    S S S  S S S  S S S S  S S  S S  S S
|-----------------------------------|---------------------------------------|
|-----------------------------------|---------------------------------------|
|-------------------------------0---|-----------------------------------0---|
|-10-0-0-9-0-0-7-0-0-0-7-0-9-0--0-0-|--9-0-0--7-0-0--9-0-0-0--7-0--9-0--0-0-|
|-----------------------------------|---------------------------------------|
|-----------------------------------|---------------------------------------|


  G5                                    D
   E   S  E   S E.    S S S  E    S S    E   S  E   S  E.    S  S S  E    S S
|--3---3--3---3-3-----3-3-3--3----3-3-|--2---2--2---2--2-----2--2-2--2----2-2-|
|--3---3--3---3-3-----3-3-3--3----3-3-|--3---3--3---3--3-----3--3-3--3----3-3-|
|--0---0--0---0-0-----0-0-0--0----0-0-|--2---2--2---2--2-----2--2-2--2----2-2-|
|-------------------------------------|--0---0--0---0--0-----0--0-0--0----0-0-|
|-------------------------------------|---------------------------------------|
|-------------------------------------|---------------------------------------|
|
|  S S S  S S S S S S S S S  S S  S S    S S S  S S S  S S S S  S S  S S  S S
|-------------------------------------|---------------------------------------|
|-------------------------------------|---------------------------------------|
|-12p0-0-11p0-0-9p0-0-0-9p0-11p0-12-0-|-14p0-0-12p0-0-11p0-0-0-11p0-12p0-14p0-|
|-------------------------------------|---------------------------------------|
|-------------------------------------|---------------------------------------|
|-------------------------------------|---------------------------------------|
|
|  S S S  S S S S S S S S S  S S  S S    S S S  S S S  S S S S  S S  S S  S S
|-------------------------------------|---------------------------------------|
|-------------------------------------|---------------------------------------|
|---------------------------------0---|-----------------------------------0---|
|--9-0-0--7-0-0-9-0-0-0-9-0--7-0--0-0-|--7-0-0--5-0-0--5-0-0-0--5-0--5-0--0-0-|
|-------------------------------------|---------------------------------------|
|-------------------------------------|---------------------------------------|


  Em7/C
   E   S  E   S  E.    S  S S  E    E
|------------------------------2----2---|
|--3---3--3---3--3-----3--3-3--3----3---|
|--0---0--0---0--0-----0--0-0--2----2---|
|--2---2--2---2--2-----2--2-2--0----0---|
|--3---3--3---3--3-----3--3-3-----------|
|---------------------------------------|
|
|  S S S  S S S  S S S S  S S  S S  S S
|---------------------------------------|
|---------------------------------------|
|-16p0-0-14p0-0-12p0-0-0-12p0-14p0-16p0-|
|---------------------------------------|
|---------------------------------------|
|---------------------------------------|
|
|  S S S  S S S  S S S S  S S  S S  S S
|---------------------------------------|
|---------------------------------------|
|-----------------------------------0---|
|--5-0-0--7-0-0--5-0-0-0--5-0--7-0--0-0-|
|---------------------------------------|
|---------------------------------------|


  G
   E   S  E   S  E.    S  S S  E    S S
|--3---3--3---3--3-----3--3-3--3----3-3-|
|--3---3--3---3--3-----3--3-3--3----3-3-|
|--0---0--0---0--0-----0--0-0--0----0-0-|
|--0---0--0---0--0-----0--0-0--0----0-0-|
|--2---2--2---2--2-----2--2-2--2----2-2-|
|--3---3--3---3--3-----3--3-3--3----3-3-|
|
|  S S S  S S S  S S S S  S S  S S  S S
|---------------------------------------|
|---------------------------------------|
|-17p0-0-16p0-0-17p0-0-0-16p0-17p0-16p0-|
|---------------------------------------|
|---------------------------------------|
|---------------------------------------|
|
|  S S S  S S S  S S S S  S S  S S  S S
|---------------------------------------|
|---------------------------------------|
|-----------------------------------0---|
|-10-0-0--9-0-0-10-0-0-0--9-0-10-0--0-0-|
|---------------------------------------|
|---------------------------------------|


  G5
   E   S  E   S  E.    S  S S  E    S S
|--3---3--3---3--3-----3--3-3--3----3-3-|
|--3---3--3---3--3-----3--3-3--3----3-3-|
|--0---0--0---0--0-----0--0-0--0----0-0-|
|---------------------------------------|
|---------------------------------------|
|---------------------------------------|
|
|  S S S  S S S  S S S S  S S  S S  S S
|---------------------------------------|
|---------------------------------------|
|-19p0-0-17p0-0-16p0-0-0-16p0-17p0-19p0-|
|---------------------------------------|
|---------------------------------------|
|---------------------------------------|
|
|  S S S  S S S  S S S S  S S  S S  S S
|---------------------------------------|
|---------------------------------------|
|-----------------------------------0---|
|--7-0-0--5-0-0--5-0-0-0--7-0--5-0--0-0-|
|---------------------------------------|
|---------------------------------------|


  D
   E   S  E   S  E.    S  S S  E    S S
|--2---2--2---2--2-----2--2-2--2----2-2-|
|--3---3--3---3--3-----3--3-3--3----3-3-|
|--2---2--2---2--2-----2--2-2--2----2-2-|
|--0---0--0---0--0-----0--0-0--0----0-0-|
|---------------------------------------|
|---------------------------------------|
|
|  S S S  S S S  S S S S  S S  S S  S S
|---------------------------------------|
|----------------------------------19---|
|-21p0-0-19p0-0-17p0-0-0-17p0-19p0----0-|
|---------------------------------------|
|---------------------------------------|
|---------------------------------------|
|
|  S S S  S S S  S S S S  S S  S S  S S
|---------------------------------------|
|---------------------------------------|
|-----------------------------------0---|
|-10-0-0--9-0-0--7-0-0-0--7-0--9-0--0-0-|
|---------------------------------------|
|---------------------------------------|


  Em7/C                                    G
   E   S  E   S  E.     S  S S  E    E      E     S E S E. S S S E S S
|-------------------------------2----2---|--3-----3-3-3-3--3-3-3-3-3-3--|
|--3---3--3---3--3------3--3-3--3----3---|--3-----3-3-3-3--3-3-3-3-3-3--|
|--0---0--0---0--0------0--0-0--2----2---|--0-----0-0-0-0--0-0-0-0-0-0--|
|--2---2--2---2--2------2--2-2--0----0---|--0-----0-0-0-0--0-0-0-0-0-0--|
|--3---3--3---3--3------3--3-3-----------|--2-----2-2-2-2--2-2-2-2-2-2--|
|----------------------------------------|--3-----3-3-3-3--3-3-3-3-3-3--|
|
|                                           ~~~~~~
|  S S S  S S S  S  S S S  S S  S S  S S    W
|----------------------------------------|------------------------------|
|-20-----19-----20--------19---20---19---|-18b20========================|
|----0-0----0-0-----0-0-0----0----0----0-|------------------------------|
|----------------------------------------|------------------------------|
|----------------------------------------|------------------------------|
|----------------------------------------|------------------------------|
|
|                                           ~~~~~~
|  S S S  S S S  S  S S S  S S  S S  S S    W
|----------------------------------------|------------------------------|
|----------------------------------------|------------------------------|
|----------------------------------------|-17b19========================|
|-17-0-0-16-0-0-17--0-0-0-16-0-17-0-16-0-|------------------------------|
|----------------------------------------|------------------------------|
|----------------------------------------|------------------------------|


  G5                            B5/G
    E  S E S E. S S S S S S S     E   S E S E. S S S S S S S
|---3--3-3-3-3--3-3-3-3-3-3-3-|---2---2-2-2-2--2-2-2-2-2-2-2-|
|---3--3-3-3-3--3-3-3-3-3-3-3-|---0---0-0-0-0--0-0-0-0-0-0-0-|
|---0--0-0-0-0--0-0-0-0-0-0-0-|---0---0-0-0-0--0-0-0-0-0-0-0-|
|-----------------------------|------------------------------|
|-----------------------------|------------------------------|
|-----------------------------|------------------------------|
|
|   >
|   ~~~~
|  +W                            +W
|-----------------------------|------------------------------|
|-(18)------------------------|-(18)r------------------------|
|-----------------------------|------------------------------|
|-----------------------------|------------------------------|
|-----------------------------|------------------------------|
|-----------------------------|------------------------------|
|
|   >
|   ~~~~
|  +W                            +W
|-----------------------------|------------------------------|
|-----------------------------|------------------------------|
|-(17)------------------------|-(17)r------------------------|
|-----------------------------|------------------------------|
|-----------------------------|------------------------------|
|-----------------------------|------------------------------|


  Am/E                       Am/E
  E S E S E. S S S S S S S   E S E S E. S S S E E
|--------------------------|------------------2-2-|
|-1-1-1-1-1--1-1-1-1-1-1-1-|-1-1-1-1-1--1-1-1-3-3-|
|-2-2-2-2-2--2-2-2-2-2-2-2-|-2-2-2-2-2--2-2-2-2-2-|
|-2-2-2-2-2--2-2-2-2-2-2-2-|-2-2-2-2-2--2-2-2-----|
|--------------------------|----------------------|
|--------------------------|----------------------|


   Outro
    G5                                    B5/G
    Gtr II
     E  S E    S E.     S  S S  S S S S   E  S E    S E.    S  S S  S S  S S
||---3--3-3----3-3------3--3-3--3-3-3-3-|-2--2-2----2-2-----2--2-2--2-2--2-2-|
||o--3--3-3----3-3------3--3-3--3-3-3-3-|-0--0-0----0-0-----0--0-0--0-0--0-0-|
||---0--0-0----0-0------0--0-0--0-0-0-0-|-0--0-0----0-0-----0--0-0--0-0--0-0-|
||--------------------------------------|------------------------------------|
||o-------------------------------------|------------------------------------|
||--------------------------------------|------------------------------------|
|
|   Gtr I
|    E  E    E   S   E.    E    E   E     E  E    E   S  E.    E    E    E
||--------------------------------------|------------------------------------|
||o----------------------------12-------|--------------------------12--------|
||----------12-----------------12-------|--------12----------------12--------|
||-----12---12------------12------------|---12---12-----------12--------12---|
||o-10--------------10------------------|-9--------------9-------------------|
||--------------------------------------|------------------------------------|


  Am/E                            Am/E
  E S E   S E.    S S S S S S S   E S E   S E.    S S S E E  4x
|-------------------------------|-----------------------2-2--||
|-1-1-1---1-1-----1-1-1-1-1-1-1-|-1-1-1---1-1-----1-1-1-3-3-o||
|-2-2-2---2-2-----2-2-2-2-2-2-2-|-2-2-2---2-2-----2-2-2-2-2--||
|-2-2-2---2-2-----2-2-2-2-2-2-2-|-2-2-2---2-2-----2-2-2------||
|-------------------------------|---------------------------o||
|-------------------------------|----------------------------||
|
| E E   E   S  E.   E   E   E     E E   E   S  E.   E   E E  4x
|-----------------------7-------|--------------7-------------||
|-------8---------------8-------|-------8-----------8-------o||
|---9---9-----------9-----------|---9---9---------------9----||
|-7-----------------------------|-7-----------------------7--||
|--------------7----------------|---------------------------o||
|-------------------------------|----------------------------||


Duration Legend
---------------
W - whole; H - half; Q - quarter; E - 8th; S - 16th; T - 32nd; X - 64th; a - acciaccatura
+ - note tied to previous; . - note dotted; .. - note double dotted
Uncapitalized letters represent notes that are staccato (1/2 duration)
Irregular groupings are notated above the duration line
Duration letters will always appear directly above the note/fret number it represents the
duration for.  Duration letters with no fret number below them represent rests.  Multi-
bar rests are notated in the form Wxn, where n is the number of bars to rest for.  Low
melody durations appear below the staff

Tablature Legend
----------------
 h   - hammer-on
 p   - pull-off
 b   - bend
 pb  - pre-bend
 r   - bend release (if no number after the r, then release immediately)
 /\  - slide into or out of (from/to "nowhere")
 s   - legato slide
 S   - shift slide
  - natural harmonic
[n]  - artificial harmonic
n(n) - tapped harmonic
 ~   - vibrato
 tr  - trill
 T   - tap
 TP  - trem. picking
 PM  - palm muting
\n/  - tremolo bar dip; n = amount to dip
 \n  - tremolo bar down
 n/  - tremolo bar up
/n\  - tremolo bar inverted dip
 =   - hold bend; also acts as connecting device for hammers/pulls
 <>  - volume swell (louder/softer)
 x   - on rhythm slash represents muted slash
 o   - on rhythm slash represents single note slash

Misc Legend
-----------
 |  - bar
||  - double bar
||o - repeat start
o|| - repeat end
*|  - double bar (ending)
 :  - bar (freetime)
 $  - Segno
 &  - Coda
Tempo markers -  = BPM(8/16=s8/s16), where s8 = swing 8ths, s16 = swing 16ths


***************************************************************************************
***************************************************************************************





Comments


Popular Quinn Peck tabs & chords
And Life Goes On Bass Tabs
Out In The Cold Bass Tabs
Apparent Mood Tabs
As She Smiles Tabs
Crystal Stairs Tabs
For You Tabs
Going Down Tabs
Half Way Around Tabs
Motorized Miracles Forever Tabs
What I Could Have Said Tabs


Song lyrics



↑ Back to top | Tablatures and chords are parodies/interpretations of the original songs. You may use it for private study, scholarship, research or language learning purposes only
© 2014 AZChords.com Contact us | Privacy policy | DMCA | Add/correct tabs | Request tabs | Top 50 tabs