» » »

Quinn Peck, Out In The Cold Bass tabs (ver.1)

Artists:  A B C D E F G H I J K L M N O P Q R S T U V W X Y Z # 

Out In The Cold Bass tabs (ver.1)

Quinn Peck Tabs
Rating:
0/5 (0 votes)
Out In The Cold lessons Tabs too difficult? Try these video lessons and learn fast
                #------------------------------------------------------------------------------##

                           OUT IN THE COLD (Bassline)
                            As recorded by Quinn Peck

Music by Quinn Peck
Arranged by Quinn Peck

Gtr I (E A D G) - 'Untitled'

 Intro
  Q=120
 4/4
  Gtr I
  Wx3          H.      E E
|------------|-------------|
|------------|-------------|
|------------|-----------0-|
|------------|-------------|


 4/4
  Q.   H    +E    +H.      +E  E   Q.   H    +E    +H.       E E
|---------------|----------------|------2----(2)-|-(2)------/5-4--|
|---------------|----------------|---------------|----------------|
|-0----0----(0)-|-(0)------(0)-0-|-0-------------|----------------|
|---------------|----------------|---------------|----------------|


  Q.   H    +E    Q.   Q  S S E E   Q.   H    +E     Q  E  Q   +E    E  E
|---------------|-----------------|---------------|------------------------|
|---------------|-----------------|---------------|------------------------|
|-0----7----(7)-|-5----3--3-5-3-2-|-0----7----(7)-|-12--0-10--(10)-/15-14--|
|---------------|-----------------|---------------|------------------------|


  Q.   H    +E    Q.   Q  S S E E   Q.   H    +E     Q  E  Q.    E E
|---------------|-----------------|---------------|-------------------|
|---------------|-----------------|---------------|-------------------|
|-0----7----(7)-|-5----3--3-5-3-2-|-0----7----(7)-|-12--0-10----/3-2--|
|---------------|-----------------|---------------|-------------------|


   Verse
    E  E  E  E   E  E  E  E   E  E  E  E   E  E  E  E
||--------------------------|-------------------------|
||o---14-12-10-/12-10-------|---14-12-10-/12-10-15-14-|
||o-0-----------------12-12-|-0-----------------------|
||--------------------------|-------------------------|


  E  E  E  E   E  E  E  E   E  E S  E S  Q   E  E
|-------------------------|------------------------||
|---14-12-10-/12-10-------|---14---12---10--------o||
|-0-----------------12-12-|-0----0----0-----10-11-o||
|-------------------------|------------------------||


  E  E  E  E   E  E  E  E   E   E  E  E   E  E  E  E
|-------------------------|--------------------------|
|---14-12-10-/12-10-------|---/14-14-14-/15-15-15-15-|
|-0-----------------12-12-|-0------------------------|
|-------------------------|--------------------------|


  E  E  E  E   E  E  E  E   E  E S  E S  Q   E  E
|-------------------------|------------------------|
|---14-12-10-/12-10-------|---14---12---10---------|
|-0-----------------12-12-|-0----0----0-----10-11--|
|-------------------------|------------------------|


  E  E  E  E   E  E  E  E   E  E  E  E   E  E  E  E
|-------------------------|-------------------------|
|---14-12-10-/12-10-------|---14-12-10-/12-10-15-14-|
|-0-----------------12-12-|-0-----------------------|
|-------------------------|-------------------------|


  E  E  E  E   E  E  E  E   E  E S  E S  Q   E  E
|-------------------------|------------------------|
|---14-12-10-/12-10-------|---14---12---10---------|
|-0-----------------12-12-|-0----0----0-----10-11--|
|-------------------------|------------------------|


   Chorus
     H..       S S    H..       S S    H..       E   E. E. E E. E. E
||-----------------|----------------|-/2-----------|-0--5--4-2--0------||
||o----------------|-/2---------2h5-|------------2-|------------------o||
||o-/0---------0h3-|----------------|--------------|---------------3--o||
||-----------------|----------------|--------------|-------------------||


   Verse
    E  E  E  E   E  E  E  E   E  E  E  E   E  E  E  E
||--------------------------|-------------------------|
||o---14-12-10-/12-10-------|---14-12-10-/12-10-15-14-|
||o-0-----------------12-12-|-0-----------------------|
||--------------------------|-------------------------|


  E  E  E  E   E  E  E  E   E  E S  E S  Q   E  E
|-------------------------|------------------------||
|---14-12-10-/12-10-------|---14---12---10--------o||
|-0-----------------12-12-|-0----0----0-----10-11-o||
|-------------------------|------------------------||


  E  E  E  E   E  E  E  E   E   E  E  E   E  E  E  E
|-------------------------|--------------------------|
|---14-12-10-/12-10-------|---/14-14-14-/15-15-15-15-|
|-0-----------------12-12-|-0------------------------|
|-------------------------|--------------------------|


  E  E  E  E   E  E  E  E   E  E S  E S  Q   E  E
|-------------------------|------------------------|
|---14-12-10-/12-10-------|---14---12---10---------|
|-0-----------------12-12-|-0----0----0-----10-11--|
|-------------------------|------------------------|


  E  E  E  E   E  E  E  E   E  E  E  E   E  E  E  E
|-------------------------|-------------------------|
|---14-12-10-/12-10-------|---14-12-10-/12-10-15-14-|
|-0-----------------12-12-|-0-----------------------|
|-------------------------|-------------------------|


  E  E  E  E   E  E  E  E   E  E S  E S  Q   E  E
|-------------------------|------------------------|
|---14-12-10-/12-10-------|---14---12---10---------|
|-0-----------------12-12-|-0----0----0-----10-11--|
|-------------------------|------------------------|


   Chorus
    E E E E E E E E   E E E E E E E E   E E E E E E E E   E E E E E E E E
||------------------|-----------------|-----------------|------------------|
||o-----7-----7---7-|-----5-----5---5-|-----------------|------------------|
||o-----------------|-----------------|-----8-----8---8-|-----7-----7---7--|
||--5-5---5-5---5---|-5-5---5-5---5---|-5-5---5-5---5---|-5-5---5-5---5----|


  E E E E E E E E    E  E E  E  E E  E E
|-----------------|----------------------|
|-----------------|----------------------|
|-----7-----8---7-|-------8-------7----8-|
|-8-8---8-8---8---|-10-10---10-10---10---|


   E  E  E  E  E  E E E   E E E E E E E E
|-----------------------|------------------||
|-----------------------|-----------7---7-o||
|-----------------------|-----------------o||
|-12-12-12-12-12-10-8-7-|-5-5-5-5-5---5----||


 Bridge
  E E E E E E E E   E E E E E E E E   E E E E E E E E    E  E  E  E  E  E E E
|-----------------|-----------------|-----------------|-----------------------|
|-----------------|-----------------|-----------------|-----------------------|
|-----------------|-----------------|-----------------|-----------------------|
|-5-5-5-5-5-5-5-5-|-7-7-7-7-7-7-5-7-|-8-8-8-8-8-8-8-7-|-10-10-10-10-10-10-8-7-|


   E  E  E  E  E  E  E  E    E  E  E  E  E  E  E  E
|-------------------------|-------------------------|
|-------------------------|-14-14-14-14-14-14-12-14-|
|-12-12-12-12-12-12-12-15-|-------------------------|
|-------------------------|-------------------------|


   E  E  E  E  E  E  E  E     S  S  S  S  S  S  S  S  S  S  S  S  S  S  S  S
|-12-12-12-12-12-12-12-13-|-/14-14-14-14-14-14-14-14-14-14-14-14-14-14-14-14--|
|-------------------------|---------------------------------------------------|
|-------------------------|---------------------------------------------------|
|-------------------------|---------------------------------------------------|


 Guitar Solo
  E E E E E E E E   E E E E E E E E   E E E E E E E E    E  E  E  E  E  E E E
|-----------------|-----------------|-----------------|-----------------------|
|-----------------|-----------------|-----------------|-----------------------|
|-----------------|-----------------|-----------------|-----------------------|
|-5-5-5-5-5-5-5-5-|-7-7-7-7-7-7-5-7-|-8-8-8-8-8-8-8-7-|-10-10-10-10-10-10-8-7-|


  E E E E E E E E   E E E E E E E E   E E E E E E E E   E E E E E E E E
|-----------------|-----------------|-----------------|-----------------|
|-----------------|-----------------|-5-5-5-5-5-5-5-6-|-7-7-7-7-7-7-7-7-|
|-----------------|-7-7-7-7-7-7-5-7-|-----------------|-----------------|
|-5-5-5-5-5-5-5-8-|-----------------|-----------------|-----------------|


    Q  E E +H       Q  E E +E  E E E
||----------------|------------------|
||o----x----------|----x-------------|
||o-0--x-0-(0)----|-0--x-7-(7)-5-3-2-|
||----------------|------------------|


  Q  E E +H        Q  E  Q   +E    E  E
|---------------|-------------------------||
|----x----------|------------------------o||
|-0--x-0-(0)----|-12--0-10--(10)-/15-14--o||
|---------------|-------------------------||


    Q  E E +H       Q  E Q  E E a E   Q  E E +H        E E E E a E E E E
||----------------|-----------------|---------------|----------------------||
||o----x-7-(7)----|------5----5-5h7-|----x-7-(7)----|-10-9-7-5-5h7-5------o||
||o-0--x----------|-7--0----0-------|-0--x----------|----------------7-5--o||
||----------------|-----------------|---------------|----------------------||


 Chorus
  E +E  E E E E E S S   E +E  E E E E E S S
|---------5-----------|---------4-----------|
|---------------------|---------------------|
|-0-(0)-0---0-0-0-0-0-|-0-(0)-0---0-0-0-0-0-|
|---------------------|---------------------|


  E +E  E E E E E S S   E E E E E E E E
|---------0-----------|-----0-----0-4-5--|
|---------------------|---2-----4--------|
|-0-(0)-0---0-0-0-0-0-|-3-----5----------|
|---------------------|------------------|


  E +E  E E E E E S S   E +E  E E E E E S S
|---------5-----------|---------4-----------|
|---------------------|---------------------|
|-0-(0)-0---0-0-0-0-0-|-0-(0)-0---0-0-0-0-0-|
|---------------------|---------------------|


  E +E  E E E E E S S   E E E E E E E E
|---------0-----------|-----0-----0------|
|---------------------|---2-----4-----0--|
|-0-(0)-0---0-0-0-0-0-|-3-----5-----2----|
|---------------------|------------------|


 Interlude
  W          +H.      Q     W            E  E  E  E  E  E  E  a  E
|----------|-------------|-----------|------------------------------|
|----------|-------------|-----------|------------------------------|
|-0--------|-(0)------0s=|=12--------|-/15-14-12-14-15-14-12-12h14--|
|----------|-------------|-----------|------------------------------|


   W           +H.       Q    W            E  E  E  E  E  E   E  E
|-----------|---------------|----------|-/16-14-12-14-16-14-/17-16-|
|-----------|---------------|----------|---------------------------|
|-12--------|-(12)------12s=|=0--------|---------------------------|
|-----------|---------------|----------|---------------------------|


   Verse
    E  E  E  E   E  E  E  E   E  E  E  E   E  E  E  E
||--------------------------|-------------------------|
||o---14-12-10-/12-10-------|---14-12-10-/12-10-15-14-|
||o-0-----------------12-12-|-0-----------------------|
||--------------------------|-------------------------|


  E  E  E  E   E  E  E  E   E  E S  E S  Q   E  E
|-------------------------|------------------------||
|---14-12-10-/12-10-------|---14---12---10--------o||
|-0-----------------12-12-|-0----0----0-----10-11-o||
|-------------------------|------------------------||


  E  E  E  E   E  E  E  E   E   E  E  E   E  E  E  E
|-------------------------|--------------------------|
|---14-12-10-/12-10-------|---/14-14-14-/15-15-15-15-|
|-0-----------------12-12-|-0------------------------|
|-------------------------|--------------------------|


  E  E  E  E   E  E  E  E   E  E S  E S  Q   E  E
|-------------------------|------------------------|
|---14-12-10-/12-10-------|---14---12---10---------|
|-0-----------------12-12-|-0----0----0-----10-11--|
|-------------------------|------------------------|


  E  E  E  E   E  E  E  E   E  E  E  E   E  E  E  E
|-------------------------|-------------------------|
|---14-12-10-/12-10-------|---14-12-10-/12-10-15-14-|
|-0-----------------12-12-|-0-----------------------|
|-------------------------|-------------------------|


  E  E  E  E   E  E  E  E   E  E S  E S  Q   E  E
|-------------------------|------------------------|
|---14-12-10-/12-10-------|---14---12---10---------|
|-0-----------------12-12-|-0----0----0-----10-11--|
|-------------------------|------------------------|


   Out-Chorus
    E E E E E E E E   E E E E E E E E   E E E E E E E E   E E E E E E E E
||------------------|-----------------|-----------------|------------------|
||o-----7-----7---7-|-----5-----5---5-|-----------------|------------------|
||o-----------------|-----------------|-----8-----8---8-|-----7-----7---7--|
||--5-5---5-5---5---|-5-5---5-5---5---|-5-5---5-5---5---|-5-5---5-5---5----|


  1.,2.
  E E E E E E E E    E  E E  E  E E  E E    E  E  E  E  E  E E E
|-----------------|----------------------|-----------------------|
|-----------------|----------------------|-----------------------|
|-----7-----8---7-|-------8-------7----8-|-----------------------|
|-8-8---8-8---8---|-10-10---10-10---10---|-12-12-12-12-12-10-8-7-|


   |--3--|  |--3--|  |--3--|  |--3--|  |--3--|  |--3--|  |--3--|  |--3--|
   S  S  S  S  S  S  S  S  S  S  S  S  S  S  S  S  S  S  S  S  S  S  S  S     3x
|-17p16p14-17p16p14-17p16p14-17p16p14-17p16p14-17p16p14-17p16p14-17p16p14-----||
|----------------------------------------------------------------------------o||
|----------------------------------------------------------------------------o||
|-----------------------------------------------------------------------------||


  3.
  E E E E E E E E    E  E E  E  E E  E E
|-----------------|----------------------|
|-----------------|----------------------|
|-----7-----8---7-|-------8-------7----8-|
|-8-8---8-8---8---|-10-10---10-10---10---|


   E  E  E  E  E  E E E   W          +W
|-----------------------|----------|--------*|
|-----------------------|----------|--------*|
|-----------------------|----------|--------*|
|-12-12-12-12-12-10-8-7-|-5--------|-(5)----*|


Duration Legend
---------------
W - whole; H - half; Q - quarter; E - 8th; S - 16th; T - 32nd; X - 64th; a - acciaccatura
+ - note tied to previous; . - note dotted; .. - note double dotted
Uncapitalized letters represent notes that are staccato (1/2 duration)
Irregular groupings are notated above the duration line
Duration letters will always appear directly above the note/fret number it represents the
duration for.  Duration letters with no fret number below them represent rests.  Multi-
bar rests are notated in the form Wxn, where n is the number of bars to rest for.  Low
melody durations appear below the staff

Tablature Legend
----------------
 h   - hammer-on
 p   - pull-off
 b   - bend
 pb  - pre-bend
 r   - bend release (if no number after the r, then release immediately)
 /\  - slide into or out of (from/to "nowhere")
 s   - legato slide
 S   - shift slide
  - natural harmonic
[n]  - artificial harmonic
n(n) - tapped harmonic
 ~   - vibrato
 tr  - trill
 T   - tap
 TP  - trem. picking
 PM  - palm muting
\n/  - tremolo bar dip; n = amount to dip
 \n  - tremolo bar down
 n/  - tremolo bar up
/n\  - tremolo bar inverted dip
 =   - hold bend; also acts as connecting device for hammers/pulls
 <>  - volume swell (louder/softer)
 x   - on rhythm slash represents muted slash
 o   - on rhythm slash represents single note slash

Misc Legend
-----------
 |  - bar
||  - double bar
||o - repeat start
o|| - repeat end
*|  - double bar (ending)
 :  - bar (freetime)
 $  - Segno
 &  - Coda
Tempo markers -  = BPM(8/16=s8/s16), where s8 = swing 8ths, s16 = swing 16ths


***************************************************************************************
***************************************************************************************
            
Submit corrections

comments powered by Disqus
↑ Back to top | Quinn Peck Bass for Out In The Cold. Lyrics for acoustic guitar and electric guitar. Tablatures and chords are parodies/interpretations of the original songs. You may use it for private study, scholarship, research or language learning purposes only