>
 >
Motorized Miracles Forever

Motorized Miracles Forever Guitar Tabs

Quinn Peck - Motorized Miracles Forever chords, tabs, tablatures, lyrics

Guitar lessons | Add/correct | Request | Top 50 tabs Artists:  A B C D E F G H I J K L M N O P Q R S T U V W X Y Z 0-9

Motorized Miracles Forever Guitar Tabs – Quinn Peck

CD, Sheet music, Poster

Do you like Motorized Miracles Forever? Share with your friends now
Bass TabsTabs
#------------------------------------------------------------------------------##

                           MOTORIZED MIRACLES FOREVER
                            As recorded by Quinn Peck

Music by Quinn Peck
Arranged by guitarist5240

          G5
      5 5 5 7 x x

Gtr I (D A D G B E) - 'Untitled'
Gtr II (D A D G B E) - 'Untitled'
Gtr III (D A D G B E) - 'Untitled'
Gtr IV (D A D G B E) - 'Untitled'

 Intro
  Q=144
  D                               G5
 4/4
  Gtr I
  Q.   E +H       Q.   Q  E E E   Q.   E +H       Q.   Q  E E E
|---------------|---------------|---------------|---------------|
|---------------|---------------|---------------|---------------|
|---------------|---------------|---------------|---------------|
|---------------|---------------|---------------|-----------5-4-|
|------5-(5)----|------5----5-7-|------5-(5)----|------5----7-5-|
|-0-------------|-0-------0-----|-5-------------|-5-------5-----|


  D                               G5                A
  Q.   E +H       Q.   Q  E E E   Q.   E +Q   E E   q  H    E E
|---------------|---------------|-----------------|--------------|
|---------------|---------------|-----------------|--------------|
|---------------|---------------|-----------------|--------------|
|---------------|---------------|-----------------|--------------|
|------5-(5)----|------5----5-7-|------5-(5)------|--------------|
|-0-------------|-0-------0-----|-5-----------5-5-|-7-------7p5--|


  D                                     G5
  E E E E E E E E   +E  E E E E E E E   E E E E E E E E   +E  E E E E E E E
|-----------------|-------------------|-----------------|--------------------|
|-----------------|-------------------|-----------------|--------------------|
|-----------------|-------------------|-----------------|--------------------|
|-----------------|-------------------|-----------------|--------------------|
|-----5---7p5---5-|-(5)---5---7-5---0-|-----5---7p5---5-|-(5)---5---7-5---0--|
|-0-0---0-----0---|-----0---0-----0---|-5-5---5-----5---|-----5---5-----5----|


  D                                     G5            A
  E E E E E E E E   +E  E E E E E E E   E E E E E E E E   +E  E E E E E E E
|-----------------|-------------------|-----------------|--------------------|
|-----------------|-------------------|-----------------|--------------------|
|-----------------|-------------------|-----------------|--------------------|
|-----------------|-------------------|-----------------|--------------------|
|-----5---7p5---5-|-(5)---5---7-5---0-|-----5---7p5-----|-------5---7-5------|
|-0-0---0-----0---|-----0---0-----0---|-5-5---5-----5-7-|-(7)-7---7-----7-5--|
|
| Gtr II
| W                  W                  W                  H        E E E E
|-----------------|-------------------|-----------------|--------------------|
|-----------------|-------------------|-----------------|--------------------|
|-----------------|-------------------|-----------------|--------------------|
|-----------------|-------------------|-----------------|-----------5-4------|
|-----------------|-------------------|-----------------|---------------5----|
|-----------------|-------------------|-----------------|-----------------5--|


   Verse
    D
    E E E E E E E E   +E  E E E E   E E E
||------------------|---------------------|
||o-----------------|---------------------|
||------------------|---------------------|
||------------------|---------------------|
||o-----5---7p5---5-|-(5)---5---7---5---0-|
||--0-0---0-----0---|-----0---0-------0---|
|
|   E E E E E E E E   +E  E E E S S E E E
||------------------|---------------------|
||o-----------------|---------------------|
||------------------|---------------------|
||----------------4-|-(4)-----4-4-5-4-----|
||o-----5---7p5-----|-----5-----------5---|
||--0-0---0-----0---|-------0-----------0-|


  G5
  E E E E E E E E   +E  E E E E   E E   E
|-----------------|-------------------------|
|-----------------|-------------------------|
|-----------------|-------------------------|
|-----------------|-------------------------|
|-----5---7p5---5-|-(5)---5---7---5-----0---|
|-5-5---5-----5---|-----5---5-------5-------|
|
| E E E E E E E E   +E  E E E S S E S S E
|-----------------|-------------------------|
|-----------------|-------------------------|
|-----------------|-------------------------|
|---------------4-|-(4)-----4-4-5-4---------|
|-----5---7p5-----|-----5-----------5-7-5---|
|-5-5---5-----5---|-------5-----------------|


  1.
  D
  E E E E E E E E   +E  E E E E   E E E
|-----------------|---------------------|
|-----------------|---------------------|
|-----------------|---------------------|
|-----------------|---------------------|
|-----5---7p5---5-|-(5)---5---7---5---0-|
|-0-0---0-----0---|-----0---0-------0---|
|
| E E E E E E E E   +E  E E E S S E E E
|-----------------|---------------------|
|-----------------|---------------------|
|-----------------|---------------------|
|---------------4-|-(4)-----4-4-5-4-----|
|-----5---7p5-----|-----5-----------5---|
|-0-0---0-----0---|-------0-----------0-|


  G5            A
  E E E E E E E E   +E  E E E E E E E
|-----------------|--------------------||
|-----------------|-------------------o||
|-----------------|--------------------||
|-----------------|--------------------||
|-----5---7p5-----|-------5---7-5-----o||
|-5-5---5-----5-7-|-(7)-7---7-----7-5--||
|
| E E E E E E E E   +E  E E E E E E E
|-----------------|--------------------||
|-----------------|-------------------o||
|-----------------|--------------------||
|---------------7-|-(7)-7-5-4-5-4------||
|-----5---7p5-----|---------------7-5-o||
|-5-5---5-----5---|--------------------||


  2.
  D                                       G5            A
  E E E E E E E E   +E  E E E E   E E E   E E E E E E E E   +E  E E E E E E E
|-----------------|---------------------|-----------------|-------------------|
|-----------------|---------------------|-----------------|-------------------|
|-----------------|---------------------|-----------------|-------------------|
|-----------------|---------------------|-----------------|-------------------|
|-----5---7p5---5-|-(5)---5---7---5---5-|-----5---7p5-----|-------5---7-5-----|
|-0-0---0-----0---|-----0---0-------0---|-5-5---5-----5-7-|-(7)-7---7-----7-5-|
|
| E E E E E E E E   +E  E E E S S E E E   E E E E E E E E   +E  E E E E E E E
|-----------------|---------------------|-----------------|-------------------|
|-----------------|---------------------|-----------------|-------------------|
|-----------------|---------------------|-----------------|-------------------|
|---------------4-|-(4)-----4-4-5-4-----|---------------7-|-(7)-7-5-4-5-4-----|
|-----5---7p5-----|-----5-----------5---|-----5---7p5-----|---------------7-5-|
|-0-0---0-----0---|-------0-----------0-|-5-5---5-----5---|-------------------|
|
| Gtr III
|                                         <
|                                                                         PM|
| W                  W                    W                 +H.           E E
|-----------------|---------------------|-----------------|-------------------|
|-----------------|---------------------|-----------------|-------------------|
|-----------------|---------------------|-----------------|-------------------|
|-----------------|---------------------|-5---------------|-(5)---------------|
|-----------------|---------------------|-5---------------|-(5)-----------0-0-|
|-----------------|---------------------|-5---------------|-(5)-----------0-0-|


   Chorus
    D5
    Gtrs I, III
    W                 +H.           Q
||------------------|-------------------|
||o-----------------|-------------------|
||--7---------------|-(7)---------------|
||--0---------------|-(0)-----------4---|
||o-0---------------|-(0)---------------|
||--0---------------|-(0)-----------4---|
|
|   E E E E E E E E   +E  E E E E E E E
||------------------|-------------------|
||o-----------------|-------------------|
||------------------|-------------------|
||------------------|-------------------|
||o-----5---7p5---5-|-(5)---5---7-5---5-|
||--0-0---0-----0---|-----0---0-----0---|


  G5
  H..              S   S     Q.     E E.   E.   E
|-------------------------|-----------------------|
|-------------------------|-----------------------|
|-7---------------(7)-(7)-|-(7)-------------------|
|-5---------------(5)-(5)-|-(5)-----4-5----4------|
|-5---------------(5)-(5)-|-(5)-----------------5-|
|-5----------------5---5--|--5--------------------|
|
| E   E E E E E E  E        +E  E E E E  E    E E
|-------------------------|-----------------------|
|-------------------------|-----------------------|
|-------------------------|-----------------------|
|-------------------------|-----------------------|
|-------5---7p5----5------|-(5)---5---7--5------5-|
|-5---5---5-----5---------|-----5---5---------5---|


  D5
  H.            E   E     Q.      Q     E   Q
|----------------------|-------------------------|
|----------------------|-------------------------|
|-7------------(7)-(7)-|-(7)-----(7)---(7)-(7)---|
|-0------------(0)-(0)-|--4-------5-----5h==7----|
|-0------------(0)-(0)-|-(0)-----(0)---(0)-(0)---|
|-0-------------0---0--|-(0)-----(0)---(0)-(0)---|
|
| E  E E E E E  E   E    +E  E E  E  E  E   E  E
|----------------------|-------------------------|
|----------------------|-------------------------|
|----------------------|-------------------------|
|----------------------|-------------------------|
|------5---7p5------5--|-(5)---5-----7--5------5-|
|-0--0---0------0------|-----0----0---------0----|


  D5/G                       G5
                                           PM|
  H.           +E   S   S     H.           E E
|--------------------------|--------------------||
|--------------------------|-------------------o||
|--------------------------|--------------------||
|-7------------(7)--5---7--|--5-----------------||
|-5------------(5)-(5)-(5)-|-(5)-----------0-0-o||
|-5------------(5)-(5)-(5)-|-(5)-----------0-0--||
|
| E  E E E E E  E   E        +E  E E E E E E E
|--------------------------|--------------------||
|--------------------------|-------------------o||
|--------------------------|--------------------||
|--------------------------|--------------------||
|------5---7p5------5------|-(5)---5---7-5---5-o||
|-5--5---5------5----------|-----5---5-----5----||


 Guitar Break
  D
  Gtr I
    E E E E E E E E    +E  E E E E E  E  E
|-------------------|----------------------|
|-------------------|----------------------|
|-------------------|----------------------|
|-------------------|----------------------|
|-------5---7p5---5-|--(5)---5---7-5-----5-|
|---0-0---0-----0---|------0---0------0----|
|
| Gtr II
|   W                  +H.            E  E
|-/10---------------|-(10)-----------10----|
|-/10---------------|-(10)--------------10-|
|-------------------|----------------------|
|-------------------|----------------------|
|-------------------|----------------------|
|-------------------|----------------------|
|
| Gtr III
|   >
|   W                  +W
|-------------------|----------------------|
|-------------------|----------------------|
|---7---------------|--(7)-----------------|
|---0---------------|--(0)-----------------|
|---0---------------|--(0)-----------------|
|---0---------------|--(0)-----------------|


  G5
  E  E    E      E E E    E E   +E  E E E E E E E
|-----------------------------|-------------------|
|-----------------------------|-------------------|
|-----------------------------|-------------------|
|-----------------------------|-------------------|
|---------5--------7p5------5-|-(5)---5---7-5---5-|
|-5--5-----------5--------5---|-----5---5-----5---|
|
| E.    E    +S  E E.  E.   E    H.           E E
|-9----------------7----------|--7----------------|
|------10---(10)s8-----8----7-|--8------------8-7-|
|-----------------------------|-------------------|
|-----------------------------|-------------------|
|-----------------------------|-------------------|
|-----------------------------|-------------------|
|
| W                              W
|-----------------------------|-------------------|
|-----------------------------|-------------------|
|-----------------------------|-------------------|
|-----------------------------|-------------------|
|-----------------------------|-------------------|
|-----------------------------|-------------------|


  D
  E  E    E E  E  E E E   +E  E   E E E E E E
|-----------------------|---------------------|
|-----------------------|---------------------|
|-----------------------|---------------------|
|-----------------------|---------------------|
|---------5----7p=5---5-|-(5)-----5---7-5---5-|
|-0--0------0-------0---|-----0-----0-----0---|
|
| E.   E.   E +H          +E  S S E E E E E E
|-----------------------|---------------------|
|-8----7----------------|-------------7-------|
|-----------7-(7)-------|-(7)-----7-9---9-7---|
|-----------------------|-----7h9-----------7-|
|-----------------------|---------------------|
|-----------------------|---------------------|


  G5                   A
  E  E    E E E E    E E     +E  E E E E E E E
|--------------------------|--------------------|
|--------------------------|--------------------|
|--------------------------|--------------------|
|--------------------------|--------------------|
|---------5---7p5----------|-------5---7-5------|
|-5--5------5--------5-7---|-(7)-7---7-----7-5--|
|
| E.   E.   E E.  E.   S S    H.           E E
|--------------------------|--------------------|
|-8----7------7------------|--------------------|
|-----------9-----7--------|--------------------|
|----------------------7h9-|--7------------0----|
|--------------------------|-----------------0--|
|--------------------------|--------------------|


   Verse
    D
    Gtr I
    E E  E E E  E E  E   +E  E  E E E  E E E
||---------------------|---------------------|
||o--------------------|---------------------|
||---------------------|---------------------|
||---------------------|---------------------|
||o------5---7p=5----5-|-(5)----5---7--5---5-|
||--0-0----0------0----|-----0----0------0---|
|
|   Gtr II
|   E E  E E E  E E  E   +E  E  E E E  E E E
||---------------------|---------------------|
||o--------------------|---------------------|
||------------------/9-|-(9)-9--9-9-9s=7-7-7-|
||---------------------|---------------------|
||o------5---7p=5---/7-|-(7)-7--7-7-7s=5-5-5-|
||--0-0----0------0----|---------------------|
|
|   Gtr IV
|   E E  E E E  E E  E    E  E  E E E  E E E
||------10-----10------|-------10-----10-----|
||o------------------7-|-------------------7-|
||----7------7---------|-----7------7--------|
||--7------7------7----|--7-------7------7---|
||o--------------------|---------------------|
||---------------------|---------------------|


  G5
  E E  E E E  E E  E   +E  E  E E E  E E E
|--------------------|---------------------|
|--------------------|---------------------|
|--------------------|---------------------|
|--------------------|---------------------|
|------5---7p=5----5-|-(5)----5---7--5---5-|
|-5-5----5------5----|-----5----5------5---|
|
| E E  E E E  E E  E   +E  E  E E E  E E E
|--------------------|---------------------|
|--------------------|---------------------|
|-----------------/9-|-(9)-9--9-9-9s11-9-7-|
|--------------------|---------------------|
|------5---7p=5---/7-|-(7)-7--7-7-7s=9-7-5-|
|-5-5----5------5----|---------------------|
|
| E E  E E E  E E  E    E  E  E E E  E E E
|-----10-----10------|-------10-----10-----|
|------------------7-|-------------------7-|
|---7------7---------|-----7------7--------|
|-7------7------7----|--7-------7------7---|
|--------------------|---------------------|
|--------------------|---------------------|


  1.
  D
  E E  E E E  E E  E   +E  E  E E E  E E E
|--------------------|---------------------|
|--------------------|---------------------|
|--------------------|---------------------|
|--------------------|---------------------|
|------5---7p=5----5-|-(5)----5---7--5---5-|
|-0-0----0------0----|-----0----0------0---|
|
| E E  E E E  E E  E   +E  E  E E E  E E E
|--------------------|---------------------|
|--------------------|---------------------|
|-----------------/9-|-(9)-9--9-9-9s=7-7-7-|
|--------------------|---------------------|
|------5---7p=5---/7-|-(7)-7--7-7-7s=5-5-5-|
|-0-0----0------0----|---------------------|
|
| E E  E E E  E E  E    E  E  E E E  E E E
|-----10-----10------|-------10-----10-----|
|------------------7-|-------------------7-|
|---7------7---------|-----7------7--------|
|-7------7------7----|--7-------7------7---|
|--------------------|---------------------|
|--------------------|---------------------|


  G5              A
  E E  E E E  E E   E    +E   E  E  E  E  E  E E
|---------------------|----------------------------||
|---------------------|---------------------------o||
|---------------------|----------------------------||
|---------------------|----------------------------||
|------5---7p=5-------|----------5-----7--5-------o||
|-5-5----5------5---7-|--(7)--7-----7--------7-5---||
|
| E E  E E E  E E   E    +E   E  E  E  E  E  E E
|---------------------|----------------------------||
|---------------------|---------------------------o||
|-----------------/11-|-(11)-11-11-11-11s=9--9s7---||
|---------------------|----------------------------||
|------5---7p=5----/9-|--(9)--9--9--9--9s=7--7s5--o||
|-5-5----5------5-----|----------------------------||
|
| E E  E E E  E E   E     E   E  E  E  E  E  E E
|-----10-----10-------|---------10-------10--------||
|-------------------7-|---------------------10----o||
|---7------7----------|-------7--------7-------7---||
|-7------7------7-----|---7---------7--------------||
|---------------------|---------------------------o||
|---------------------|----------------------------||


  2.
  D
  E E  E E E  E E  E   +E  E  E E E  E E E
|--------------------|---------------------|
|--------------------|---------------------|
|--------------------|---------------------|
|--------------------|---------------------|
|------5---7p=5----5-|-(5)----5---7--5---5-|
|-0-0----0------0----|-----0----0------0---|
|
| E E  E E E  E E  E   +E  E  E E E  E E E
|--------------------|---------------------|
|--------------------|---------------------|
|-----------------/9-|-(9)-9--9-9-9s=7-7-7-|
|--------------------|---------------------|
|------5---7p=5---/7-|-(7)-7--7-7-7s=5-5-5-|
|-0-0----0------0----|---------------------|
|
| E E  E E E  E E  E    E  E  E E E  E E E
|-----10-----10------|-------10-----10-----|
|------------------7-|-------------------7-|
|---7------7---------|-----7------7--------|
|-7------7------7----|--7-------7------7---|
|--------------------|---------------------|
|--------------------|---------------------|


  G5              A
                                            Gtrs I, III
                                             PM|
  E E  E E E  E E   E    +E   E  E  E  E  E  E E
|---------------------|---------------------------|
|---------------------|---------------------------|
|---------------------|---------------------------|
|---------------------|---------------------------|
|------5---7p=5-------|----------5-----7--5--0-0--|
|-5-5----5------5---7-|--(7)--7-----7--------0-0--|
|
| E E  E E E  E E   E    +E   E  E  E  E  E  E E
|---------------------|---------------------------|
|---------------------|---------------------------|
|-----------------/11-|-(11)-11-11-11-11s=9--9s7--|
|---------------------|---------------------------|
|------5---7p=5----/9-|--(9)--9--9--9--9s=7--7s5--|
|-5-5----5------5-----|---------------------------|
|
| E E  E E E  E E   E     E   E  E  E  E  E  E E
|-----10-----10-------|---------10-------10-------|
|-------------------7-|---------------------10----|
|---7------7----------|-------7--------7-------7--|
|-7------7------7-----|---7---------7-------------|
|---------------------|---------------------------|
|---------------------|---------------------------|


   Chorus
    D5
    Gtrs I, III
    W                   +H.            Q
||--------------------|--------------------|
||o-------------------|--------------------|
||--7-----------------|-(7)----------------|
||--0-----------------|-(0)------------4---|
||o-0-----------------|-(0)----------------|
||--0-----------------|-(0)------------4---|
|
|   Gtr II
|   E E  E E E  E E E   +E  E E  E E E E E
||--------------------|--------------------|
||o-------------------|--------------------|
||--------------------|--------------------|
||--------------------|--------------------|
||o------5---7p=5---5-|-(5)---5----7-5---5-|
||--0-0----0------0---|-----0----0-----0---|
|
|   Gtr IV
|   E E  E E E  E E E    E  E E  E E E E E
||--------------------|--------------------|
||o-----10-----10-----|-10------10-----7---|
||----7------7------7-|-------7------7---7-|
||--0------0------0---|-----0------0-------|
||o-------------------|--------------------|
||--------------------|--------------------|


  G5
  H..              S   S     Q.     E E.   E.   E
|-------------------------|-----------------------|
|-------------------------|-----------------------|
|-7---------------(7)-(7)-|-(7)-------------------|
|-5---------------(5)-(5)-|-(5)-----4-5----4------|
|-5---------------(5)-(5)-|-(5)-----------------5-|
|-5----------------5---5--|--5--------------------|
|
| E   E E E E E E  E        +E  E E E E  E    E E
|-------------------------|-----------------------|
|-------------------------|-----------------------|
|-------------------------|-----------------------|
|-------------------------|-----------------------|
|-------5---7p5----5------|-(5)---5---7--5------5-|
|-5---5---5-----5---------|-----5---5---------5---|
|
| E   E E E E E E  E         E  E E E E  E    E E
|-------------------------|-----------------------|
|-------8-----8-----------|--8------8---------7---|
|-----7-----7------7------|-------7------7------7-|
|-5-------5-----5---------|-----5-----5-----------|
|-------------------------|-----------------------|
|-------------------------|-----------------------|


  1.
  D5
  H.            E   E     Q.      Q     E   Q
|----------------------|-------------------------|
|----------------------|-------------------------|
|-7------------(7)-(7)-|-(7)-----(7)---(7)-(7)---|
|-0------------(0)-(0)-|--4-------5-----5h==7----|
|-0------------(0)-(0)-|-(0)-----(0)---(0)-(0)---|
|-0-------------0---0--|-(0)-----(0)---(0)-(0)---|
|
| E  E E E E E  E   E    +E  E E  E  E  E   E  E
|----------------------|-------------------------|
|----------------------|-------------------------|
|----------------------|-------------------------|
|----------------------|-------------------------|
|------5---7p5------5--|-(5)---5-----7--5------5-|
|-0--0---0------0------|-----0----0---------0----|
|
| E  E E E E E  E   E     E  E E  E  E  E   E  E
|----------------------|-------------------------|
|------7-----7---------|--7-------7---------7----|
|----7-----7--------7--|-------7--------7--------|
|-7------7------7------|-----7-------7---------7-|
|----------------------|-------------------------|
|----------------------|-------------------------|


  D5/G                       G5
                                           PM|
  H.           +E   S   S     H.           E E
|--------------------------|--------------------||
|--------------------------|-------------------o||
|--------------------------|--------------------||
|-7------------(7)--5---7--|--5-----------------||
|-5------------(5)-(5)-(5)-|-(5)-----------0-0-o||
|-5------------(5)-(5)-(5)-|-(5)-----------0-0--||
|
| E  E E E E E  E   E        +E  E E E E E E E
|--------------------------|--------------------||
|--------------------------|-------------------o||
|--------------------------|--------------------||
|--------------------------|--------------------||
|------5---7p5------5------|-(5)---5---7-5---5-o||
|-5--5---5------5----------|-----5---5-----5----||
|
| E  E E E E E  E   E         E  E E E E E E E
|--------------------------|--------------------||
|------8-----8-------------|-------8-----7---7-o||
|----7-----7--------7------|-----7-----7--------||
|-9------9------9----------|--7------7-----7----||
|--------------------------|-------------------o||
|--------------------------|--------------------||


  2.
  D5
  H.            E   E     Q.      Q     E   Q
|----------------------|-------------------------|
|----------------------|-------------------------|
|-7------------(7)-(7)-|-(7)-----(7)---(7)-(7)---|
|-0------------(0)-(0)-|--4-------5-----5h==7----|
|-0------------(0)-(0)-|-(0)-----(0)---(0)-(0)---|
|-0-------------0---0--|-(0)-----(0)---(0)-(0)---|
|
| E  E E E E E  E   E    +E  E E  E  E  E   E  E
|----------------------|-------------------------|
|----------------------|-------------------------|
|----------------------|-------------------------|
|----------------------|-------------------------|
|------5---7p5------5--|-(5)---5-----7--5------5-|
|-0--0---0------0------|-----0----0---------0----|
|
| E  E E E E E  E   E     E  E E  E  E  E   E  E
|----------------------|-------------------------|
|------7-----7---------|--7-------7---------7----|
|----7-----7--------7--|-------7--------7--------|
|-7------7------7------|-----7-------7---------7-|
|----------------------|-------------------------|
|----------------------|-------------------------|


  D5/G                       G5
                                           Gtr III
  H.           +E   S   S     H.            E E
|--------------------------|--------------------|
|--------------------------|--------------------|
|--------------------------|------------------7-|
|-7------------(7)--5---7--|--5------------/9---|
|-5------------(5)-(5)-(5)-|-(5)----------------|
|-5------------(5)-(5)-(5)-|-(5)----------------|
|
| E  E E E E E  E   E        +E  E E E E E  E E
|--------------------------|--------------------|
|--------------------------|--------------------|
|--------------------------|--------------------|
|--------------------------|--------------------|
|------5---7p5------5------|-(5)---5---7-5----5-|
|-5--5---5------5----------|-----5---5------5---|
|
| E  E E E E E  E   E         E  E E E E E  E E
|--------------------------|--------------------|
|------8-----8-------------|-------8-----7----7-|
|----7-----7--------7------|-----7-----7--------|
|-9------9------9----------|--7------7------7---|
|--------------------------|--------------------|
|--------------------------|--------------------|


 Guitar Break
  D
  Gtr I
    E      E   E  E  E  E E E    +E  E E E   E E E E
|-----------------------------|----------------------|
|-----------------------------|----------------------|
|-----------------------------|----------------------|
|-----------------------------|----------------------|
|--------------5-----7p=5---5-|--(5)---5-----7-5---5-|
|---0------0------0-------0---|------0---0-------0---|
|
| Gtr III
|                           ~~~~~~~~~
|   E     +E  +Q    +E  E E E    +Q.     S S E E E E
|-----------------------------|----------------------|
|-----------------------------|------------------7---|
|---9b11==(9)-(9)---(9)-9r7-7-|--(7)---------7-9---9-|
|-----------------------------|----------7h9---------|
|-----------------------------|----------------------|
|-----------------------------|----------------------|
|
| Gtr IV
|   W                            +W
|-^10-------------------------|-(10)-----------------|
|-^-7-------------------------|--(7)-----------------|
|-^-7-------------------------|--(7)-----------------|
|-^-0-------------------------|--(0)-----------------|
|-----------------------------|----------------------|
|-----------------------------|----------------------|


  G5
   E    E  E  E E E E E   +E  E E E E E E E
|-----------------------|-------------------|
|-----------------------|-------------------|
|-----------------------|-------------------|
|-----------------------|-------------------|
|----------5----7p5---5-|-(5)---5---7-5---5-|
|--5----5-----5-----5---|-----5---5-----5---|
|
|                          ~~~
|  Q      +E  E E E E E   +H.           E E
|-----------------------|-------------------|
|---------------8-7-----|-------------------|
|--9b11---(9)-7-----7---|-------------------|
|---------------------9-|-(9)-----------7---|
|-----------------------|-----------------7-|
|-----------------------|-------------------|
|
|  W                      +W
|-----------------------|-------------------|
|-^8--------------------|-(8)---------------|
|-^7--------------------|-(7)---------------|
|-^5--------------------|-(5)---------------|
|-----------------------|-------------------|
|-----------------------|-------------------|


  D
   E      E   E  E  E  E E E       +E  E E E E E  E    E
|--------------------------------|-----------------------|
|--------------------------------|-----------------------|
|--------------------------------|-----------------------|
|--------------------------------|-----------------------|
|-------------5-----7p=5---5-----|-(5)---5---7-5-------5-|
|--0------0------0-------0-------|-----0---0------0------|
|
|                                   ~~~~~~~~~~~~~~~~~~
|  E     +E  +Q    +E  E E E       +H.           +E    E
|--------------------------------|--------------------10-|
|--------------------------------|-----------------------|
|--9b11==(9)-(9)---(9)-9r7-9b11==|=(9)-----------(9)r----|
|--------------------------------|-----------------------|
|--------------------------------|-----------------------|
|--------------------------------|-----------------------|
|
|  W                               +W
|--------------------------------|-----------------------|
|-^7-----------------------------|-(7)-------------------|
|-^7-----------------------------|-(7)-------------------|
|-^7-----------------------------|-(7)-------------------|
|--------------------------------|-----------------------|
|--------------------------------|-----------------------|


  G5/B                A
   E  E E  E  E E  E   E   +E  E   E E   E E   E E
|------------------------|-----------------------------|
|------------------------|-----------------------------|
|------------------------|-----------------------------|
|------------------------|-----------------------------|
|-------5-----7p5--------|---------5-----7-5-----------|
|--5--5----5-------5---7-|-(7)-7-----7---------7-5-----|
|
|  E  E E  E  E E  E   E   +E  S S E S S E S S E S S
|-10--9-9----------------|-----------------------------|
|---------10-10-7--------|-----------------------------|
|----------------------9-|-(9)-7h9p7-------------------|
|------------------------|-----------7h9p7-------------|
|------------------------|-----------------7h9p7-5h7---|
|------------------------|-----------------------------|
|
|  H.             +E   E   +W
|------------------------|-----------------------------|
|-^8--------------(8)-^5-|-(5)-------------------------|
|-^7--------------(7)-^6-|-(6)-------------------------|
|-^9--------------(9)-^7-|-(7)-------------------------|
|------------------------|-----------------------------|
|------------------------|-----------------------------|


   Verse
    D
    Gtr II
    E  E  E E E  E E  E   +E  E  E E E  E E E
||----------------------|---------------------|
||o---------------------|---------------------|
||-------------------/9-|-(9)-9--9-9-9s=7-7-7-|
||----------------------|---------------------|
||o-------5---7p=5---/7-|-(7)-7--7-7-7s=5-5-5-|
||--0--0----0------0----|---------------------|
|
|   Gtr III
|   ~~
|   H.             E  E   +E  E  E E E  E E E
||----------------------|---------------------|
||o---------------------|---------------------|
||-------------------/9-|-(9)-9--9-9-9s=7-7---|
||----------------------|---------------------|
||o-5----------------/7-|-(7)-7--7-7-7s=5-5---|
||-----------------0----|-------------------0-|
|
|   E  E  E E E  E E  E    E  E  E E E  E E E
||-------10-----10------|-------10-----10-----|
||o-------------------7-|-------------------7-|
||-----7------7---------|-----7------7--------|
||--7-------7------7----|--7-------7------7---|
||o---------------------|---------------------|
||----------------------|---------------------|


  G5
  E  E  E E E  E E  E   +E  E  E E E  E E E
|---------------------|---------------------|
|---------------------|---------------------|
|------------------/9-|-(9)-9--9-9-9s11-9-7-|
|---------------------|---------------------|
|-------5---7p=5---/7-|-(7)-7--7-7-7s=9-7-5-|
|-5--5----5------5----|---------------------|
|
| ~~
| H.             E  E   +E  E  E E E  E E E
|---------------------|---------------------|
|---------------------|---------------------|
|------------------/9-|-(9)-9--9-9-9s11-9-7-|
|---------------------|---------------------|
|------------------/7-|-(7)-7--7-7-7s=9-7-5-|
|-5--------------0----|---------------------|
|
| E  E  E E E  E E  E    E  E  E E E  E E E
|------10-----10------|-------10-----10-----|
|-------------------7-|-------------------7-|
|----7------7---------|-----7------7--------|
|-7-------7------7----|--7-------7------7---|
|---------------------|---------------------|
|---------------------|---------------------|


  1.
  D
  E  E  E E E  E E  E   +E  E  E E E  E E E
|---------------------|---------------------|
|---------------------|---------------------|
|------------------/9-|-(9)-9--9-9-9s=7-7-7-|
|---------------------|---------------------|
|-------5---7p=5---/7-|-(7)-7--7-7-7s=5-5-5-|
|-0--0----0------0----|---------------------|
|
| ~~
| H.             E  E   +E  E  E E E  E E E
|---------------------|---------------------|
|---------------------|---------------------|
|------------------/9-|-(9)-9--9-9-9s=7-7---|
|---------------------|---------------------|
|-5----------------/7-|-(7)-7--7-7-7s=5-5---|
|----------------0----|-------------------0-|
|
| E  E  E E E  E E  E    E  E  E E E  E E E
|------10-----10------|-------10-----10-----|
|-------------------7-|-------------------7-|
|----7------7---------|-----7------7--------|
|-7-------7------7----|--7-------7------7---|
|---------------------|---------------------|
|---------------------|---------------------|


  G5               A
  E  E  E E E  E E   E    +E   E  E  E  E  E  E E
|----------------------|----------------------------||
|----------------------|---------------------------o||
|------------------/11-|-(11)-11-11-11-11s=9--9s7---||
|----------------------|----------------------------||
|-------5---7p=5----/9-|--(9)--9--9--9--9s=7--7s5--o||
|-5--5----5------5-----|----------------------------||
|
| ~~
| H.             E   E    +E   E  E  E  E  E  E E
|----------------------|----------------------------||
|----------------------|---------------------------o||
|------------------/11-|-(11)-11-11-11-11s=9--9s7---||
|----------------------|----------------------------||
|-------------------/9-|--(9)--9--9--9--9s=7--7s5--o||
|-5--------------0-----|----------------------------||
|
| E  E  E E E  E E   E     E   E  E  E  E  E  E E
|------10-----10-------|---------10-------10--------||
|--------------------7-|---------------------10----o||
|----7------7----------|-------7--------7-------7---||
|-7-------7------7-----|---7---------7--------------||
|----------------------|---------------------------o||
|----------------------|----------------------------||


  2.
  D
  E  E  E E E  E E  E   +E  E  E E E  E E E
|---------------------|---------------------|
|---------------------|---------------------|
|------------------/9-|-(9)-9--9-9-9s=7-7-7-|
|---------------------|---------------------|
|-------5---7p=5---/7-|-(7)-7--7-7-7s=5-5-5-|
|-0--0----0------0----|---------------------|
|
| ~~
| H.             E  E   +E  E  E E E  E E E
|---------------------|---------------------|
|---------------------|---------------------|
|------------------/9-|-(9)-9--9-9-9s=7-7---|
|---------------------|---------------------|
|-5----------------/7-|-(7)-7--7-7-7s=5-5---|
|----------------0----|-------------------0-|
|
| E  E  E E E  E E  E    E  E  E E E  E E E
|------10-----10------|-------10-----10-----|
|-------------------7-|-------------------7-|
|----7------7---------|-----7------7--------|
|-7-------7------7----|--7-------7------7---|
|---------------------|---------------------|
|---------------------|---------------------|


  G5               A
  E  E  E E E  E E   E    +E   E  E  E  E   E  E E
|----------------------|----------------------------|
|----------------------|----------------------------|
|------------------/11-|-(11)-11-11-11--9---9--6-6--|
|----------------------|----------------------------|
|-------5---7p=5----/9-|--(9)--9--9--9--7---7--4-4--|
|-5--5----5------5-----|----------------------------|
|
| ~~
| H.             E   E    +H           +E   E  E E
|----------------------|----------------------------|
|----------------------|----------------------------|
|----------------------|-------------------------7--|
|----------------------|-----------------------7----|
|-------------------/9-|--(9)----------(9)-/9-------|
|-5--------------0-----|----------------------------|
|
| E  E  E E E  E E   E     E   E  E  E  E   E  E E
|------10-----10-------|---------10--------10-------|
|--------------------7-|----------------------10----|
|----7------7----------|-------7--------7--------7--|
|-7-------7------7-----|---7---------7--------------|
|----------------------|----------------------------|
|----------------------|----------------------------|


 Guitar Solo
  D
  Gtr II
  E     E  E E E  E E E    E  E E  E   E E E E
|-----------------------|----------------------|
|-----------------------|----------------------|
|-7-----7--7-7-7--7-7-7-|--7--7-7--7---7-7-7-7-|
|-----------------------|----------------------|
|-5-----5--5-5-5--5-5-5-|--5--5-5--5---5-5-5-5-|
|-----------------------|----------------------|
|
| Gtr III
| ~~~~~                    ~~~
| Q        E E E  E E E   +Q.      S S E E E E
|-----------------------|----------------------|
|-----------------------|------------------7---|
|-9b11=====9r7----7---7-|-(7)----------7-9---9-|
|--------------9----9---|----------7h9---------|
|-----------------------|----------------------|
|-----------------------|----------------------|
|
| Gtr IV
| E     E  E E E  E E E    E  E E  E   E E E E
|-----------------------|----------------------|
|---------10-----10-----|-10------10-------7---|
|-------7------7------7-|-------7--------7---7-|
|-0----------0------0---|-----0--------0-------|
|-----------------------|----------------------|
|-----------------------|----------------------|


  G5
   E     E   E  E     E   E  E  E      E   E  E  E  E  E  E   E
|-----------------------------------|----------------------------|
|-----------------------------------|----------------------------|
|-12----12--12-12----12--12-12-12---|-12--12-12-12-12-12-12--12--|
|-----------------------------------|----------------------------|
|-10----10--10-10----10--10-10-10---|-10--10-10-10-10-10-10--10--|
|-----------------------------------|----------------------------|
|
|                                      ~~~
|  E    +E   E  E    +E   E  E  S S    H.                +E   E
|------------7----------------------|--7-----------------(7)-10--|
|------------------------10---------|--8-----------------(8)-----|
|--9b11-(9)-----9b11-(9)-----7------|----------------------------|
|-------------------------------9p7-|----------------------------|
|-----------------------------------|----------------------------|
|-----------------------------------|----------------------------|
|
|  E     E   E  E     E   E  E  E      E   E  E  E  E  E  E   E
|-----------------------------------|----------------------------|
|------------8------------8---------|--8---------8--------7------|
|--------7------------7---------7---|---------7--------7------7--|
|--5------------5------------5------|------5--------5------------|
|-----------------------------------|----------------------------|
|-----------------------------------|----------------------------|


  D
    E  E E  E  E E E  E     E  E E  E  E E E  E
|-----------------------|-----------------------|
|-----------------------|-----------------------|
|---7--7-7--7--7-7-7--7-|---7--7-7--7--7-7-7--7-|
|-----------------------|-----------------------|
|---5--5-5--5--5-5-5--5-|---5--5-5--5--5-5-5--5-|
|-----------------------|-----------------------|
|
|  +E  E E  E  E E E  E    +E  E E  E  E E E  E
|-(10)-9-9-----------10-|-(10)-9-9-----------12-|
|----------10-10--------|----------10-10--------|
|----------------7-7----|----------------7-7----|
|-----------------------|-----------------------|
|-----------------------|-----------------------|
|-----------------------|-----------------------|
|
|   E  E E  E  E E E  E     E  E E  E  E E E  E
|-----------------------|-----------------------|
|--------7-------7------|---7-------7------7----|
|------7-------7------7-|--------7-------7------|
|---7-------7------7----|------7-------7------7-|
|-----------------------|-----------------------|
|-----------------------|-----------------------|


  G5
   E  E  E  E  E  E  E  E     E   E  E  E  E  E  E  E
|-------------------------|----------------------------|
|-------------------------|----------------------------|
|-12-12-12-12-12-12-12-12-|--12--12-12-12-12-12-12-12--|
|-------------------------|----------------------------|
|-10-10-10-10-10-10-10-10-|--10--10-10-10-10-10-10-10--|
|-------------------------|----------------------------|
|
|                             ~~~~
|  E  E  E  E  E  E  E  E    +H.                 Q
|-12-10-10--9--9-10-------|----------------------------|
|-------------------10-12-|-(12)-----------------------|
|-------------------------|----------------------------|
|-------------------------|----------------------------|
|-------------------------|----------------------------|
|-------------------------|----------------------0-----|
|
|  E  E  E  E  E  E  E  E     E   E  E  E  E  E  E  E
|-------------------------|----------------------------|
|--------8--------8-------|----------8--------7-----7--|
|-----7--------7--------7-|-------7--------7-----------|
|--9--------9--------9----|---7---------7--------7-----|
|-------------------------|----------------------------|
|-------------------------|----------------------------|


  D
   E   E       E     E       E      E       E     E
|--------------------------------------------------------|
|--------------------------------------------------------|
|--7---7-------7-----7-------7------7-------7-----7------|
|--------------------------------------------------------|
|--5---5-------5-----5-------5------5-------5-----5------|
|--------------------------------------------------------|
|
|  S S S   S   S  S  S   S   S  S   S   S   S  S  S   S
|-10---9-(10)----(9)-9------10-(9)--9-(10)----(9)-9------|
|-------------10-------(10)----------------10-------(10)-|
|--------------------------------------------------------|
|--------------------------------------------------------|
|--------------------------------------------------------|
|--------------------------------------------------------|
|
|  E   E       E     E       E      E       E     E
|--------------------------------------------------------|
|-------------10-------------------10--------------------|
|------7---------------------7--------------------7------|
|--0-----------------0----------------------0------------|
|--------------------------------------------------------|
|--------------------------------------------------------|


   E     E       E      E       E     E       E     E
|----------------------------------------------------------|
|----------------------------------------------------------|
|--7-----7-------7------7-------7-----7-------7-----7------|
|----------------------------------------------------------|
|--5-----5-------5------5-------5-----5-------5-----5------|
|----------------------------------------------------------|
|
|  S  S  S   S   S  S   S   S   S  S  S   S   S  S  S   S
|-10-(9)-9-(10)----(9)--9------10-(9)-9-(10)----(9)-9------|
|---------------10--------(10)---------------10-------(10)-|
|----------------------------------------------------------|
|----------------------------------------------------------|
|----------------------------------------------------------|
|----------------------------------------------------------|
|
|  E     E       E      E       E     E       E     E
|----------------------------------------------------------|
|-10-------------------10---------------------7------------|
|----------------7--------------------7-------------7------|
|--------0----------------------0--------------------------|
|----------------------------------------------------------|
|----------------------------------------------------------|


  G5
   E      E       E      E      E       E       E      E
|------------------------------------------------------------|
|------------------------------------------------------------|
|-12-----12------12-----12-----12------12------12-----12-----|
|------------------------------------------------------------|
|-10-----10------10-----10-----10------10------10-----10-----|
|------------------------------------------------------------|
|
|  S  S   S   S   S  S   S  S   S   S   S   S   S  S   S  S
|-10-(9)--9-(10)-12-(9)----(9)-10-------9-(10)-12-(9)----(9)-|
|-----------------------10--------(10)----------------10-----|
|------------------------------------------------------------|
|------------------------------------------------------------|
|------------------------------------------------------------|
|------------------------------------------------------------|
|
|  E      E       E      E      E       E       E      E
|------------------------------------------------------------|
|-----------------8---------------------8--------------------|
|---------7---------------------7----------------------7-----|
|--5---------------------5----------------------5------------|
|------------------------------------------------------------|
|------------------------------------------------------------|


   E       E       E      E      E       E       E      E
|-------------------------------------------------------------|
|-------------------------------------------------------------|
|-12------12------12-----12-----12------12------12-----12-----|
|-------------------------------------------------------------|
|-10------10------10-----10-----10------10------10-----10-----|
|-------------------------------------------------------------|
|
|  S   S   S   S   S  S   S  S   S   S   S   S   S  S   S  S
|-10-------9-(10)-12-(9)----(9)-10-------9-(10)-12-(9)----(9)-|
|----(10)----------------10--------(10)----------------10-----|
|-------------------------------------------------------------|
|-------------------------------------------------------------|
|-------------------------------------------------------------|
|-------------------------------------------------------------|
|
|  E       E       E      E      E       E       E      E
|-------------------------------------------------------------|
|--8----------------------8----------------------7------------|
|------------------7---------------------7--------------7-----|
|----------5---------------------5----------------------------|
|-------------------------------------------------------------|
|-------------------------------------------------------------|


  D
   E       E       E       E       E       E       E       E
|-----------------------------------------------------------------|
|-----------------------------------------------------------------|
|--7-------7-------7-------7-------7-------7-------7-------7------|
|-----------------------------------------------------------------|
|--5-------5-------5-------5-------5-------5-------5-------5------|
|-----------------------------------------------------------------|
|
|  S   S   S   S   S   S   S   S   S   S   S   S   S   S   S   S
|-15-(12)-14-(15)-12-(14)-14-(12)-12-(14)-10-(12)-12-(10)-10-(12)-|
|-----------------------------------------------------------------|
|-----------------------------------------------------------------|
|-----------------------------------------------------------------|
|-----------------------------------------------------------------|
|-----------------------------------------------------------------|
|
|  E       E       E       E       E       E       E       E
|-----------------------------------------------------------------|
|------------------7-----------------------7----------------------|
|----------7-----------------------7-----------------------7------|
|--7-----------------------7-----------------------7--------------|
|-----------------------------------------------------------------|
|-----------------------------------------------------------------|


   E       E       E       E       E       E       E       E
|-----------------------------------------------------------------|
|-----------------------------------------------------------------|
|--7-------7-------7-------7-------7-------7-------7-------7------|
|-----------------------------------------------------------------|
|--5-------5-------5-------5-------5-------5-------5-------5------|
|-----------------------------------------------------------------|
|
|  S   S   S   S   S   S   S   S   S   S   S   S   S   S   S   S
|-15-(12)-14-(15)-12-(14)-14-(12)-12-(14)-10-(12)-12-(10)-10-(12)-|
|-----------------------------------------------------------------|
|-----------------------------------------------------------------|
|-----------------------------------------------------------------|
|-----------------------------------------------------------------|
|-----------------------------------------------------------------|
|
|  E       E       E       E       E       E       E       E
|-----------------------------------------------------------------|
|--7-----------------------7-----------------------7--------------|
|------------------7-----------------------7----------------------|
|----------7-----------------------7-----------------------7------|
|-----------------------------------------------------------------|
|-----------------------------------------------------------------|


   E       E      E       E      E       E      E       E
|-------------------------------------------------------------|
|-------------------------------------------------------------|
|-12------12-----12------12-----12------12-----12------12-----|
|-------------------------------------------------------------|
|-10------10-----10------10-----10------10-----10------10-----|
|-------------------------------------------------------------|
|
|  S   S   S  S   S   S   S  S   S   S   S  S   S   S   S  S
|--9-(10)-10-(9)--9-(10)----(9)--9------10-(9)--9-(10)----(9)-|
|------------------------10--------(10)----------------10-----|
|-------------------------------------------------------------|
|-------------------------------------------------------------|
|-------------------------------------------------------------|
|-------------------------------------------------------------|
|
|  E       E      E       E      E       E      E       E
|-------------------------------------------------------------|
|-----------------8----------------------8--------------------|
|----------7---------------------7----------------------7-----|
|--9----------------------9---------------------9-------------|
|-------------------------------------------------------------|
|-------------------------------------------------------------|


   E       E      E       E      E        E      E      E
|------------------------------------------------------------|
|------------------------------------------------------------|
|-12------12-----12------12-----12-------12-----12-----12----|
|------------------------------------------------------------|
|-10------10-----10------10-----10-------10-----10-----10----|
|------------------------------------------------------------|
|
|  S   S   S  S   S   S   S  S   S   S    S  S   S  S   S  S
|--9------10-(9)--9-(10)----(9)------------------------------|
|----(10)----------------------------------------------------|
|------------------------------------------------------------|
|------------------------11-----12-(11)-(12)---(12)---(12)---|
|------------------------------------------------------------|
|------------------------------------------------------------|
|
|  E       E      E       E      E        E      E      E
|------------------------------------------------------------|
|-----------------8-----------------------7-------------7----|
|----------7---------------------7---------------------------|
|--7----------------------7----------------------7-----------|
|------------------------------------------------------------|
|------------------------------------------------------------|


   Verse
    D
    Gtr I
    E E  E E E  E E  E   +E  E  E E E  E E E
||---------------------|---------------------|
||o--------------------|---------------------|
||---------------------|---------------------|
||---------------------|---------------------|
||o------5---7p=5----5-|-(5)----5---7--5---5-|
||--0-0----0------0----|-----0----0------0---|
|
|   Gtr II
|   E E  E E E  E E  E   +E  E  E E E  E E E
||---------------------|---------------------|
||o--------------------|---------------------|
||------------------/9-|-(9)-9--9-9-9s=7-7-7-|
||---------------------|---------------------|
||o------5---7p=5---/7-|-(7)-7--7-7-7s=5-5-5-|
||--0-0----0------0----|---------------------|
|
|   E E  E E E  E E  E    E  E  E E E  E E E
||------10-----10------|-------10-----10-----|
||o------------------7-|-------------------7-|
||----7------7---------|-----7------7--------|
||--7------7------7----|--7-------7------7---|
||o--------------------|---------------------|
||---------------------|---------------------|


  G5
  E E  E E E  E E  E   +E  E  E E E  E E E
|--------------------|---------------------|
|--------------------|---------------------|
|--------------------|---------------------|
|--------------------|---------------------|
|------5---7p=5----5-|-(5)----5---7--5---5-|
|-5-5----5------5----|-----5----5------5---|
|
| E E  E E E  E E  E   +E  E  E E E  E E E
|--------------------|---------------------|
|--------------------|---------------------|
|-----------------/9-|-(9)-9--9-9-9s11-9-7-|
|--------------------|---------------------|
|------5---7p=5---/7-|-(7)-7--7-7-7s=9-7-5-|
|-5-5----5------5----|---------------------|
|
| E E  E E E  E E  E    E  E  E E E  E E E
|-----10-----10------|-------10-----10-----|
|------------------7-|-------------------7-|
|---7------7---------|-----7------7--------|
|-7------7------7----|--7-------7------7---|
|--------------------|---------------------|
|--------------------|---------------------|


  D
  E E  E E E  E E  E   +E  E  E E E  E E E
|--------------------|---------------------|
|--------------------|---------------------|
|--------------------|---------------------|
|--------------------|---------------------|
|------5---7p=5----5-|-(5)----5---7--5---5-|
|-0-0----0------0----|-----0----0------0---|
|
| E E  E E E  E E  E   +E  E  E E E  E E E
|--------------------|---------------------|
|--------------------|---------------------|
|-----------------/9-|-(9)-9--9-9-9s=7-7-7-|
|--------------------|---------------------|
|------5---7p=5---/7-|-(7)-7--7-7-7s=5-5-5-|
|-0-0----0------0----|---------------------|
|
| E E  E E E  E E  E    E  E  E E E  E E E
|-----10-----10------|-------10-----10-----|
|------------------7-|-------------------7-|
|---7------7---------|-----7------7--------|
|-7------7------7----|--7-------7------7---|
|--------------------|---------------------|
|--------------------|---------------------|


  G5              A
  E E  E E E  E E   E    +E   E  E  E  E  E  E E
|---------------------|----------------------------||
|---------------------|---------------------------o||
|---------------------|----------------------------||
|---------------------|----------------------------||
|------5---7p=5-------|----------5-----7--5-------o||
|-5-5----5------5---7-|--(7)--7-----7--------7-5---||
|
| E E  E E E  E E   E    +E   E  E  E  E  E  E E
|---------------------|----------------------------||
|---------------------|---------------------------o||
|-----------------/11-|-(11)-11-11-11-11s=9--9s7---||
|---------------------|----------------------------||
|------5---7p=5----/9-|--(9)--9--9--9--9s=7--7s5--o||
|-5-5----5------5-----|----------------------------||
|
| E E  E E E  E E   E     E   E  E  E  E  E  E E
|-----10-----10-------|---------10-------10--------||
|-------------------7-|---------------------10----o||
|---7------7----------|-------7--------7-------7---||
|-7------7------7-----|---7---------7--------------||
|---------------------|---------------------------o||
|---------------------|----------------------------||


 Outro
  D5
  Gtr I
    E E E E E E E E     E  E E E E E E E
|-------------------|--------------------|
|-------------------|--------------------|
|---------7---------|----------7---------|
|-------7---7---7---|--------7---7---7---|
|-----5-------5---5-|------5-------5---5-|
|---0---------------|---0----------------|
|
|   >
|   ~~~~~~~~~~~~~~~~~~~~~~~
|   W                  +W
|-------------------|--------------------|
|-------------------|--------------------|
|---7---------------|--(7)---------------|
|-------------------|--------------------|
|---5---------------|--(5)---------------|
|-------------------|--------------------|
|
|   W                  +W
|-^10---------------|-(10)---------------|
|-^-7---------------|--(7)---------------|
|-^-7---------------|--(7)---------------|
|-^-0---------------|--(0)---------------|
|-------------------|--------------------|
|-------------------|--------------------|


  D5/G
   E E E E E E E E    E  E E E E E E E
|------------------|--------------------|
|------------------|--------------------|
|--------7---------|---------7----------|
|------7---7---7---|-------7---7---7----|
|----5-------5---5-|-----5-------5---5--|
|--5---------------|--5-----------------|
|
|  W                  W
|------------------|--------------------|
|------------------|--------------------|
|------------------|--------------------|
|------------------|--------------------|
|------------------|--------------------|
|------------------|--------------------|
|
|  W                 +W
|------------------|--------------------|
|-^8---------------|-(8)----------------|
|-^7---------------|-(7)----------------|
|-^5---------------|-(5)----------------|
|------------------|--------------------|
|------------------|--------------------|


                                         H.=H
  D5                                     D5/G
   E E E E E E E E    E  E E E E E E E    E E E E E E E E    E E E E E E E E
|------------------|-------------------|------------------|-------------------|
|------------------|-------------------|------------------|-------------------|
|--------7---------|---------7---------|--------7---------|--------6-7-6------|
|------7---7---7---|-------7---7---7---|------7---7---7---|------7-------7----|
|----5-------5---5-|-----5-------5---5-|----5-------5---5-|----7-----------7--|
|--0---------------|--0----------------|--5---------------|--7----------------|
|
|  W                  W                   W                  H       E E E E
|------------------|-------------------|------------------|-------------------|
|------------------|-------------------|------------------|----------7-5------|
|------------------|-------------------|------------------|--------------6----|
|------------------|-------------------|------------------|----------------7--|
|------------------|-------------------|------------------|-------------------|
|------------------|-------------------|------------------|-------------------|
|
| Gtr IV
|  W                 +W                   W                  W
|------------------|-------------------|------------------|-------------------|
|-^7---------------|-(7)---------------|-^8---------------|-^5----------------|
|-^7---------------|-(7)---------------|-^7---------------|-^6----------------|
|-^7---------------|-(7)---------------|-^9---------------|-^7----------------|
|------------------|-------------------|------------------|-------------------|
|------------------|-------------------|------------------|-------------------|


  Q=72
  D5/A
    W           +W            +W
|------------|-------------|---------*|
|------------|-------------|---------*|
|-^-7--------|--(7)--------|--(7)----*|
|-^-7--------|--(7)--------|--(7)----*|
|-^-5--------|--(5)--------|--(5)----*|
|-^-7--------|--(7)--------|--(7)----*|
|
|   W           +W            +W
|------------|-------------|---------*|
|-^-7--------|--(7)--------|--(7)----*|
|-^-7--------|--(7)--------|--(7)----*|
|-^-7--------|--(7)--------|--(7)----*|
|------------|-------------|---------*|
|------------|-------------|---------*|
|
|   W           +W            +W
|------------|-------------|---------*|
|-^10--------|-(10)--------|-(10)----*|
|-^-7--------|--(7)--------|--(7)----*|
|-^-0--------|--(0)--------|--(0)----*|
|------------|-------------|---------*|
|-^-0--------|--(0)--------|--(0)----*|


Duration Legend
---------------
W - whole; H - half; Q - quarter; E - 8th; S - 16th; T - 32nd; X - 64th; a - acciaccatura
+ - note tied to previous; . - note dotted; .. - note double dotted
Uncapitalized letters represent notes that are staccato (1/2 duration)
Irregular groupings are notated above the duration line
Duration letters will always appear directly above the note/fret number it represents the
duration for.  Duration letters with no fret number below them represent rests.  Multi-
bar rests are notated in the form Wxn, where n is the number of bars to rest for.  Low
melody durations appear below the staff

Tablature Legend
----------------
 h   - hammer-on
 p   - pull-off
 b   - bend
 pb  - pre-bend
 r   - bend release (if no number after the r, then release immediately)
 /\  - slide into or out of (from/to "nowhere")
 s   - legato slide
 S   - shift slide
  - natural harmonic
[n]  - artificial harmonic
n(n) - tapped harmonic
 ~   - vibrato
 tr  - trill
 T   - tap
 TP  - trem. picking
 PM  - palm muting
\n/  - tremolo bar dip; n = amount to dip
 \n  - tremolo bar down
 n/  - tremolo bar up
/n\  - tremolo bar inverted dip
 =   - hold bend; also acts as connecting device for hammers/pulls
 <>  - volume swell (louder/softer)
 x   - on rhythm slash represents muted slash
 o   - on rhythm slash represents single note slash

Misc Legend
-----------
 |  - bar
||  - double bar
||o - repeat start
o|| - repeat end
*|  - double bar (ending)
 :  - bar (freetime)
 $  - Segno
 &  - Coda
Tempo markers -  = BPM(8/16=s8/s16), where s8 = swing 8ths, s16 = swing 16ths


***************************************************************************************
***************************************************************************************





Comments


Popular Quinn Peck tabs & chords
And Life Goes On Bass Tabs
Motorized Miracles Forever Bass Tabs
Out In The Cold Bass Tabs
As She Smiles Tabs
Buy Yourself Tabs
For You Tabs
Half Way Around Tabs
The Girl I Love Tabs
Walking Alone Tabs
Wonderful Week Tabs


Song lyrics



↑ Back to top | Tablatures and chords are parodies/interpretations of the original songs. You may use it for private study, scholarship, research or language learning purposes only
© 2014 AZChords.com Contact us | Privacy policy | DMCA | Add/correct tabs | Request tabs | Top 50 tabs