>
 >
Half Way Around

Half Way Around Guitar Tabs

Quinn Peck - Half Way Around chords, tabs, tablatures, lyrics

Guitar lessons | Add/correct | Request | Top 50 tabs Artists:  A B C D E F G H I J K L M N O P Q R S T U V W X Y Z 0-9

Half Way Around Guitar Tabs – Quinn Peck

CD, Sheet music, Poster

Do you like Half Way Around? Share with your friends now
Tabs
#------------------------------------------------------------------------------##

                                 HALF WAY AROUND
                            As recorded by Quinn Peck

Music by Quinn Peck
Arranged by guitarist240

Gtr I (E A D G B E) - 'Untitled'
Gtr II (E A D G B E) - 'Untitled'
Gtr III (E A D G B E) - 'Untitled'
Gtr IV (E A D G B E) - 'Untitled'
Gtr V (E A D G B E) - 'Untitled'
Gtr VI (E A D G B E) - 'Untitled'

 Intro
  Q=100
  Em                                C
 4/4
  Gtr I
  PM|                               PM|
  e E X  X   X   X   X  +X  +T  +E  e E X  X   X   X   X  +X  +T  +E
|--------------------0--(0)-(0)-(0)--------------------0--(0)-(0)-(0)-|
|----------------0--(0)-(0)-(0)-(0)----------------1--(1)-(1)-(1)-(1)-|
|------------0--(0)-(0)-(0)-(0)-(0)------------0--(0)-(0)-(0)-(0)-(0)-|
|--------2--(2)-(2)-(2)-(2)-(2)-(2)--------2--(2)-(2)-(2)-(2)-(2)-(2)-|
|-----2-(2)-(2)-(2)-(2)-(2)-(2)-(2)-3-3-3-(3)-(3)-(3)-(3)-(3)-(3)-(3)-|
|-0-0-----------------------------------------------------------------|


  G                                 D
  PM|                               PM|
  e E X  X   X   X   X  +X  +T  +E  E E X  X   X  +X   S   S   S
|--------------------3--(3)-(3)-(3)-----2-(2)-(2)-(2)--3---2---0--|
|----------------3--(3)-(3)-(3)-(3)------------3--(3)-(3)-(3)-(3)-|
|------------0--(0)-(0)-(0)-(0)-(0)--------2--(2)-(2)-(2)-(2)-(2)-|
|--------0--(0)-(0)-(0)-(0)-(0)-(0)-0-0-0-(0)-(0)-(0)-(0)-(0)-(0)-|
|-----2-(2)-(2)-(2)-(2)-(2)-(2)-(2)-------------------------------|
|-3-3-------------------------------------------------------------|


  Em                                C
  PM|                               PM|
  e E X  X   X   X   X  +X  +T  +E  e E X  X   X   X   X  +X  +T  +E
|--------------------0--(0)-(0)-(0)--------------------0--(0)-(0)-(0)-|
|----------------0--(0)-(0)-(0)-(0)----------------1--(1)-(1)-(1)-(1)-|
|------------0--(0)-(0)-(0)-(0)-(0)------------0--(0)-(0)-(0)-(0)-(0)-|
|--------2--(2)-(2)-(2)-(2)-(2)-(2)--------2--(2)-(2)-(2)-(2)-(2)-(2)-|
|-----2-(2)-(2)-(2)-(2)-(2)-(2)-(2)-3-3-3-(3)-(3)-(3)-(3)-(3)-(3)-(3)-|
|-0-0-----------------------------------------------------------------|


  G                                 D
  PM|                               PM|
  e E X  X   X   X   X  +X  +T  +E  E E X  X   X  +X   S   S   S
|--------------------3--(3)-(3)-(3)-----2-(2)-(2)-(2)--3---2---0---|
|----------------3--(3)-(3)-(3)-(3)------------3--(3)-(3)-(3)-(3)--|
|------------0--(0)-(0)-(0)-(0)-(0)--------2--(2)-(2)-(2)-(2)-(2)--|
|--------0--(0)-(0)-(0)-(0)-(0)-(0)-0-0-0-(0)-(0)-(0)-(0)-(0)-(0)--|
|-----2-(2)-(2)-(2)-(2)-(2)-(2)-(2)--------------------------------|
|-3-3--------------------------------------------------------------|


 Verse
  Em        C           G         D
  PM|       PM|         PM|       PM|
  e E Q     e E Q       e E Q     E E S  S   S   S
|-----0---------0-----|-----3---------2--3---2---0--|
|-----0---------1-----|-----3---------3-(3)-(3)-(3)-|
|-----0---------0-----|-----0---------2-(2)-(2)-(2)-|
|-----2---------2-----|-----0-----0-0-0-(0)-(0)-(0)-|
|-----2-----3-3-3-----|-----2-----------------------|
|-0-0-----------------|-3-3-------------------------|
|
| Gtr II    Gtr III     Gtrs II, III
| e E E S S e E E S S   e E E S S e E S  S   S   S
|-0-0-3-2-3-0-0-3-2-3-|-0-0-3-2-3-----2--3---2---0--|
|---------------------|-----------3-3---------------|
|---------------------|-----------------------------|
|---------------------|-----------------------------|
|---------------------|-----------------------------|
|---------------------|-----------------------------|


  Em        C           G         D
  PM|       PM|         PM|       PM|
  e E Q     e E Q       e E Q     E E S  S   S   S
|-----0---------0-----|-----3---------2--3---2---0----|
|-----0---------1-----|-----3---------3-(3)-(3)-(3)---|
|-----0---------0-----|-----0---------2-(2)-(2)-(2)---|
|-----2---------2-----|-----0-----0-0-0-(0)-(0)-(0)---|
|-----2-----3-3-3-----|-----2-------------------------|
|-0-0-----------------|-3-3---------------------------|
|
| Gtr II    Gtr III     Gtrs II, III
| e E Q     E E Q       E E Q     E E S  S   S   S
|-3-3-7-----3-3-7-----|-3-3-7-----2-2-5--7---5---3----|
|-5-5-8-7-8-5-5-8-7-8-|-5-5-8-7-8-3-3-7--8---7---5----|
|---------------------|-------------------------------|
|---------------------|-------------------------------|
|---------------------|-------------------------------|
|---------------------|-------------------------------|
  e E E S S e E E S S   e E E S S E E S  S   S   S


  Em                 C                    G                  D
   PM|                PM|                  PM|                PM|
   e  E  Q            e  E  Q              e  E  Q            E  E  S  S   S   S
|--------0------------------0-----------|--------3------------------2--3---2---0--|
|--------0------------------1-----------|--------3------------------3-(3)-(3)-(3)-|
|--------0------------------0-----------|--------0------------------2-(2)-(2)-(2)-|
|--------2------------------2-----------|--------0------------0--0--0-(0)-(0)-(0)-|
|--------2------------3--3--3-----------|--------2--------------------------------|
|--0--0---------------------------------|--3--3-----------------------------------|
|
| Gtr II             Gtr III              Gtrs II, III
|  E  E  E   S    S   E  E  E   S    S     E  E  E   S    S   E  E  S  S   S   S
|-12-12-15--14---15--12-12-15--14---15--|-12-12-15--14---15--10-10-14-15--14--12--|
|--8--8-12-(12)-(12)--8--8-12-(12)-(12)-|--8--8-12-(12)-(12)--7--7-10-12--10---8--|
|--9--9-12--11---12---9--9-12--11---12--|--9--9-12--11---12---7--7-11-12--11---9--|
|---------------------------------------|-----------------------------------------|
|---------------------------------------|-----------------------------------------|
|---------------------------------------|-----------------------------------------|
   E  E  E   S    S   E  E  E   S    S     E  E  E   S    S   E  E  S  S   S   S


  Em                 C           G           D
   PM|               PM|         PM|         PM|
   e  E  Q           e E Q       e E Q       E E E E
|--------0---------------0-----|-----3-----------2-0------|
|--------0---------------1-----|-----3-----------3-3------|
|--------0---------------0-----|-----0-----------2-0------|
|--------2---------------2-----|-----0-------0-0-0--------|
|--------2-----------3-3-3-----|-----2--------------------|
|--0--0------------------------|-3-3----------------------|
|
| Gtr II             Gtr III     Gtrs II, III
|                                      |-3-|       |-3-|
|  E  E  E   S    S  E E Q       e E E S S S E E E S S S
|-12-12-15--14---15--3-3-7-----|-0-0-3-2-3-2-----2-0------|
|--8--8-12-(12)-(12)-5-5-8-7-8-|-------------3-3-----3----|
|--9--9-12--11---12------------|-----------------------0--|
|------------------------------|--------------------------|
|------------------------------|--------------------------|
|------------------------------|--------------------------|
   E  E  E   S    S  e E E S S


 Chorus
  Em7/C                      Emadd9/D   Em G/E
  Q   S S S E.   E S S E      E E S S S E. E S S S S
|-0---0-0-0-3----3-3-3-3---|--0-0-0-0-0-0--7-7-7-7-7-|
|-3---3-3-3-3----3-3-3-3---|--5-5-5-5-5-0--0-0-0-0-0-|
|-0---0-0-0-0----0-0-0-0---|--0-0-0-0-0-0--0-0-0-0-0-|
|-2---2-2-2-2----2-2-2-2---|--4-4-4-4-4-5--5-5-5-5-5-|
|-3---3-3-3-3----3-3-3-3---|--5-5-5-5-5-7--7-7-7-7-7-|
|--------------------------|-------------------------|
|
| E E E   E    E E E   S S    E E E   S E. E E   E
|--------------------------|-------------------------|
|--------------------------|-------------------------|
|-----0------------0-----0-|------0---x------0-------|
|---2-----2------2-----2---|----4----------5-----5---|
|-3------------3-----------|-/5---------7------------|
|--------------------------|-------------------------|


  Em7/C                      Emadd9/D   Em G/E
  E E S S S E.   E S S E      E E S S S E. E S S S S
|-0-0-0-0-0-3----3-3-3-3---|--0-0-0-0-0-0--7-7-7-7-7--|
|-3-3-3-3-3-3----3-3-3-3---|--5-5-5-5-5-0--0-0-0-0-0--|
|-0-0-0-0-0-0----0-0-0-0---|--0-0-0-0-0-0--0-0-0-0-0--|
|-2-2-2-2-2-2----2-2-2-2---|--4-4-4-4-4-5--5-5-5-5-5--|
|-3-3-3-3-3-3----3-3-3-3---|--5-5-5-5-5-7--7-7-7-7-7--|
|--------------------------|--------------------------|
|
| E E E   E    E E E   S S    E E E   S E. E E   E
|--------------------------|--------------------------|
|--------------------------|--------------------------|
|-----0------------0-----0-|------0---x------0--------|
|---2-----2------2-----2---|----4----------5-----5----|
|-3------------3-----------|-/5---------7-------------|
|--------------------------|--------------------------|


  Em7/C                    Emadd9/D  Em G/E
  Q.     S H         +S     Q.     S H        +S
|-0------0-3---------(3)-|--0------0-7--------(7)-|
|-3------3-3---------(3)-|--5------5-0--------(0)-|
|-0------0-0---------(0)-|--0------0-0--------(0)-|
|-2------2-2---------(2)-|--4------4-5--------(5)-|
|-3------3-3---------(3)-|--5------5-7--------(7)-|
|------------------------|------------------------|
|
| E  E E E   E E E S  S     E  E E S E. E E E
|------------------------|------------------------|
|------------------------|------------------------|
|------0---------0----0--|-------0-x------0-------|
|----2---2-----2---2-----|-----4--------5---5-----|
|-3----------3-----------|-/5--------7------------|
|------------------------|------------------------|


  Em7/C                      Emadd9/D   G/E
  E E S S S E.   E S S E      E E S S S S  E   E   E   E
|-0-0-0-0-0-3----3-3-3-3---|--0-0-0-0-0-7-(7)-(7)-(7)-(7)-|
|-3-3-3-3-3-3----3-3-3-3---|--5-5-5-5-5-0-(0)-(0)-(0)-(0)-|
|-0-0-0-0-0-0----0-0-0-0---|--0-0-0-0-0-0-(0)-(0)-(0)-(0)-|
|-2-2-2-2-2-2----2-2-2-2---|--4-4-4-4-4-5-(5)-(5)-(5)-(5)-|
|-3-3-3-3-3-3----3-3-3-3---|--5-5-5-5-5-7-(7)-(7)-(7)-(7)-|
|--------------------------|------------------------------|
|
| E E E   E    E E E   S S    E E E   S S +H
|--------------------------|------------7-(7)-------------|
|--------------------------|------------8-(8)-------------|
|-----0------------0-----0-|------0---x-9-(9)-------------|
|---2-----2------2-----2---|----4-------------------------|
|-3------------3-----------|-/5---------------------------|
|--------------------------|------------------------------|


 Verse
  Em            C               G             D
   PM-|          PM-|            PM-|          PM-|
   e   E  Q      e   E  Q        e   E  Q      E   E   S   S   S   S
|---------0-------------0-----|---------3--------------2---3---2---0--|
|---------0-------------1-----|---------3--------------3--(3)-(3)-(3)-|
|---------0-------------0-----|---------0--------------2--(2)-(2)-(2)-|
|---------2-------------2-----|---------0------0---0---0--(0)-(0)-(0)-|
|---------2------3---3--3-----|---------2-----------------------------|
|--0---0----------------------|--3---3--------------------------------|
|
| Gtr II        Gtr III         Gtrs II, III
|  e   E  E S S  e   E  E S S    e   E  E S S  e   E   S   S   S   S
|--0---0--3-2-3--0---0--3-2-3-|--0---0--3-2-3----------2---3---2---0--|
|-----------------------------|----------------3---3------------------|
|-----------------------------|---------------------------------------|
|-----------------------------|---------------------------------------|
|-----------------------------|---------------------------------------|
|-----------------------------|---------------------------------------|
|
| Gtr IV
|  E   E  q      E   E  q        E   E  q      E   E   S   E.
|---------7-------------7-----|---------7------------------5----------|
|---------8-------------8-----|---------8------------------7----------|
|-(9)-(9)-9-----(9)-(9)-9-----|-(9)-(9)-9-----(7)-(7)-(7)--7----------|
|-----------------------------|---------------------------------------|
|-----------------------------|---------------------------------------|
|-----------------------------|---------------------------------------|


  Em            C               G             D
   PM-|          PM-|            PM-|          PM-|
   e   E  Q      e   E  Q        e   E  Q      E   E   S   S   S   S
|---------0-------------0-----|---------3--------------2---3---2---0----|
|---------0-------------1-----|---------3--------------3--(3)-(3)-(3)---|
|---------0-------------0-----|---------0--------------2--(2)-(2)-(2)---|
|---------2-------------2-----|---------0------0---0---0--(0)-(0)-(0)---|
|---------2------3---3--3-----|---------2-------------------------------|
|--0---0----------------------|--3---3----------------------------------|
|
| Gtr II        Gtr III         Gtrs II, III
|  e   E  Q      E   E  Q        E   E  Q      E   E   S   S   S   S
|--3---3--7------3---3--7-----|--3---3--7------2---2---5---7---5---3----|
|--5---5--8-7-8--5---5--8-7-8-|--5---5--8-7-8--3---3---7---8---7---5----|
|-----------------------------|-----------------------------------------|
|-----------------------------|-----------------------------------------|
|-----------------------------|-----------------------------------------|
|-----------------------------|-----------------------------------------|
|  e   E  E S S  e   E  E S S    e   E  E S S  E   E   S   S   S   S
|
|  E   E  q      E   E  q        E   E  q      E   E   S   E.
|---------7-------------7-----|---------7------------------5------------|
|---------8-------------8-----|---------8------------------7------------|
|-(9)-(9)-9-----(9)-(9)-9-----|-(9)-(9)-9-----(7)-(7)-(7)--7------------|
|-----------------------------|-----------------------------------------|
|-----------------------------|-----------------------------------------|
|-----------------------------|-----------------------------------------|


  Em                   C                      G                    D
   PM-|                 PM-|                   PM-|                 PM-|
   e   E   Q            e   E   Q              e   E   Q            E   E   S   S   S   S
|----------0--------------------0-----------|----------3--------------------2---3---2---0--|
|----------0--------------------1-----------|----------3--------------------3--(3)-(3)-(3)-|
|----------0--------------------0-----------|----------0--------------------2--(2)-(2)-(2)-|
|----------2--------------------2-----------|----------0------------0---0---0--(0)-(0)-(0)-|
|----------2------------3---3---3-----------|----------2-----------------------------------|
|--0---0------------------------------------|--3---3---------------------------------------|
|
| Gtr II               Gtr III                Gtrs II, III
|  E   E   E   S    S   E   E   E   S    S     E   E   E   S    S   E   E   S   S   S   S
|-12--12--15--14---15--12--12--15--14---15--|-12--12--15--14---15--10--10--14--15--14--12--|
|--8---8--12-(12)-(12)--8---8--12-(12)-(12)-|--8---8--12-(12)-(12)--7---7--10--12--10---8--|
|--9---9--12--11---12---9---9--12--11---12--|--9---9--12--11---12---7---7--11--12--11---9--|
|-------------------------------------------|----------------------------------------------|
|-------------------------------------------|----------------------------------------------|
|-------------------------------------------|----------------------------------------------|
|  E   E   E   S    S   E   E   E   S    S     E   E   E   S    S   E   E   S   S   S   S
|
|  E   E   q            E   E   q              E   E   q            E   E   S   E.
|----------7--------------------7-----------|----------7------------------------5----------|
|----------8--------------------8-----------|----------8------------------------7----------|
|-(9)-(9)--9-----------(9)-(9)--9-----------|-(9)-(9)--9-----------(7)-(7)-(7)--7----------|
|-------------------------------------------|----------------------------------------------|
|-------------------------------------------|----------------------------------------------|
|-------------------------------------------|----------------------------------------------|


  Em                   C               G               D
   PM-|                 PM-|            PM-|            PM-|
   e   E   Q            e   E  Q        e   E  Q        E   E  E E
|----------0-------------------0-----|---------3---------------2-0------|
|----------0-------------------1-----|---------3---------------3-3------|
|----------0-------------------0-----|---------0---------------2-0------|
|----------2-------------------2-----|---------0--------0---0--0--------|
|----------2------------3---3--3-----|---------2------------------------|
|--0---0-----------------------------|--3---3---------------------------|
|
| Gtr II               Gtr III         Gtrs II, III
|                                                |-3-|           |-3-|
|  E   E   E   S    S   E   E  Q        e   E  E S S S  E   E  E S S S
|-12--12--15--14---15---3---3--7-----|--0---0--3-2-3-2---------2-0------|
|--8---8--12-(12)-(12)--5---5--8-7-8-|------------------3---3------3----|
|--9---9--12--11---12----------------|-------------------------------0--|
|------------------------------------|----------------------------------|
|------------------------------------|----------------------------------|
|------------------------------------|----------------------------------|
|  E   E   E   S    S   e   E  E S S
|
|  E   E   q            E   E  q        E   E  q        E   E  E E
|----------7-------------------7-----|---------7---------------5-5------|
|----------8-------------------8-----|---------8---------------7-5------|
|-(9)-(9)--9-----------(9)-(9)-9-----|-(9)-(9)-9-------(7)-(7)-7-7------|
|------------------------------------|----------------------------------|
|------------------------------------|----------------------------------|
|------------------------------------|----------------------------------|


 Chorus
  Em7/C                      Emadd9/D   Em G/E
  Q   S S S E.   E S S E      E E S S S E. E S S S S
|-0---0-0-0-3----3-3-3-3---|--0-0-0-0-0-0--7-7-7-7-7-|
|-3---3-3-3-3----3-3-3-3---|--5-5-5-5-5-0--0-0-0-0-0-|
|-0---0-0-0-0----0-0-0-0---|--0-0-0-0-0-0--0-0-0-0-0-|
|-2---2-2-2-2----2-2-2-2---|--4-4-4-4-4-5--5-5-5-5-5-|
|-3---3-3-3-3----3-3-3-3---|--5-5-5-5-5-7--7-7-7-7-7-|
|--------------------------|-------------------------|
|
| E E E   E    E E E   S S    E E E   S E. E E   E
|--------------------------|-------------------------|
|--------------------------|-------------------------|
|-----0------------0-----0-|------0---x------0-------|
|---2-----2------2-----2---|----4----------5-----5---|
|-3------------3-----------|-/5---------7------------|
|--------------------------|-------------------------|


  Em7/C                      Emadd9/D   Em G/E
  E E S S S E.   E S S E      E E S S S E. E S S S S
|-0-0-0-0-0-3----3-3-3-3---|--0-0-0-0-0-0--7-7-7-7-7--|
|-3-3-3-3-3-3----3-3-3-3---|--5-5-5-5-5-0--0-0-0-0-0--|
|-0-0-0-0-0-0----0-0-0-0---|--0-0-0-0-0-0--0-0-0-0-0--|
|-2-2-2-2-2-2----2-2-2-2---|--4-4-4-4-4-5--5-5-5-5-5--|
|-3-3-3-3-3-3----3-3-3-3---|--5-5-5-5-5-7--7-7-7-7-7--|
|--------------------------|--------------------------|
|
| E E E   E    E E E   S S    E E E   S E. E E   E
|--------------------------|--------------------------|
|--------------------------|--------------------------|
|-----0------------0-----0-|------0---x------0--------|
|---2-----2------2-----2---|----4----------5-----5----|
|-3------------3-----------|-/5---------7-------------|
|--------------------------|--------------------------|


  Em7/C                    Emadd9/D  Em G/E
  Q.     S H         +S     Q.     S H        +S
|-0------0-3---------(3)-|--0------0-7--------(7)-|
|-3------3-3---------(3)-|--5------5-0--------(0)-|
|-0------0-0---------(0)-|--0------0-0--------(0)-|
|-2------2-2---------(2)-|--4------4-5--------(5)-|
|-3------3-3---------(3)-|--5------5-7--------(7)-|
|------------------------|------------------------|
|
| E  E E E   E E E S  S     E  E E S E. E E E
|------------------------|------------------------|
|------------------------|------------------------|
|------0---------0----0--|-------0-x------0-------|
|----2---2-----2---2-----|-----4--------5---5-----|
|-3----------3-----------|-/5--------7------------|
|------------------------|------------------------|


  Em7/C                      Emadd9/D   G/E
  E E S S S E.   E S S E      E E S S S S  E   E   E   E
|-0-0-0-0-0-3----3-3-3-3---|--0-0-0-0-0-7-(7)-(7)-(7)-(7)-|
|-3-3-3-3-3-3----3-3-3-3---|--5-5-5-5-5-0-(0)-(0)-(0)-(0)-|
|-0-0-0-0-0-0----0-0-0-0---|--0-0-0-0-0-0-(0)-(0)-(0)-(0)-|
|-2-2-2-2-2-2----2-2-2-2---|--4-4-4-4-4-5-(5)-(5)-(5)-(5)-|
|-3-3-3-3-3-3----3-3-3-3---|--5-5-5-5-5-7-(7)-(7)-(7)-(7)-|
|--------------------------|------------------------------|
|
| E E E   E    E E E   S S    E E E   S S +H
|--------------------------|------------7-(7)-------------|
|--------------------------|------------8-(8)-------------|
|-----0------------0-----0-|------0---x-9-(9)-------------|
|---2-----2------2-----2---|----4-------------------------|
|-3------------3-----------|-/5---------------------------|
|--------------------------|------------------------------|


 Bridge
  C               Dadd11             Em          Dadd11
  W                                  W
|----------------------------------|-------------------------------------|
|----------------------------------|-------------------------------------|
|----------------------------------|-------------------------------------|
|----------------------------------|-------------------------------------|
|----------------------------------|-------------------------------------|
|----------------------------------|-------------------------------------|
|
| Gtrs I, V
| Q    E   S   S   Q    E   S   S    Q    S   S  Q    E   S   S   S   S
|------3---2---3--------3---2---3--|-3----2---3-------3---2---3---2---3--|
|----------------------------------|-------------------------------------|
|-0---(0)-(0)-(0)--0---(0)-(0)-(0)-|-0---(0)-(0)-0---(0)-(0)-(0)-(0)-(0)-|
|-2---(2)-(2)-(2)--4---(4)-(4)-(4)-|-5---(5)-(5)-4---(4)-(4)-(4)-(4)-(4)-|
|-3---(3)-(3)-(3)--5---(5)-(5)-(5)-|-7---(7)-(7)-5---(5)-(5)-(5)-(5)-(5)-|
|----------------------------------|-------------------------------------|
|
| Gtrs I, IV
| E E  E   E       E E  E   E        E E  E      E E  E   E       E
|----------------------------------|-------------------------------------|
|----------------------------------|-------------------------------------|
|------0----------------0----------|------0-----------0------------------|
|---2------2---------4------4------|---5-----------4------4--------------|
|-3---------------/5---------------|-7-----------5----------------5------|
|----------------------------------|-------------------------------------|


  C               Dadd11             Em          Dadd11
  Gtr Gtr III     Gtr IGtr III       Gtr Gtr III   Gtr IIGtr III
  e e  e   e       e e  e   e        e e  e      e e  e   e       e
|-3----3-----------3----3----------|-3----3------3----3-----------3--------|
|-5----5-----------7----7----------|-8----8------7----7-----------7--------|
|-5----5-----------7----7----------|-9----9------7----7-----------7--------|
|----------------------------------|---------------------------------------|
|----------------------------------|---------------------------------------|
|----------------------------------|---------------------------------------|
|
| Q    E   S   S   Q    E   S   S    Q    S   S  Q    E   S   S   S   S
|------3---2---3--------3---2---3--|-3----2---3-------3---2---3---2---3----|
|----------------------------------|---------------------------------------|
|-0---(0)-(0)-(0)--0---(0)-(0)-(0)-|-0---(0)-(0)-0---(0)-(0)-(0)-(0)-(0)---|
|-2---(2)-(2)-(2)--4---(4)-(4)-(4)-|-5---(5)-(5)-4---(4)-(4)-(4)-(4)-(4)---|
|-3---(3)-(3)-(3)--5---(5)-(5)-(5)-|-7---(7)-(7)-5---(5)-(5)-(5)-(5)-(5)---|
|----------------------------------|---------------------------------------|
|
| E E  E   E       E E  E   E        E E  E      E E  E   E       E
|----------------------------------|---------------------------------------|
|----------------------------------|---------------------------------------|
|------0----------------0----------|------0-----------0--------------------|
|---2------2---------4------4------|---5-----------4------4----------------|
|-3---------------/5---------------|-7-----------5----------------5--------|
|----------------------------------|---------------------------------------|


  C               Dadd11             Em          Dadd11
  Gtr Gtr III     Gtr IGtr III       Gtr Gtr III   Gtr IIGtr III
  e e  e   e       e e  e   e        e e  e      e e  e   e       e
|-3----3-----------3----3----------|-3----3------3----3-----------3------|
|-5----5-----------7----7----------|-8----8------7----7-----------7------|
|-5----5-----------7----7----------|-9----9------7----7-----------7------|
|----------------------------------|-------------------------------------|
|----------------------------------|-------------------------------------|
|----------------------------------|-------------------------------------|
|
| Q    E   S   S   Q    E   S   S    Q    S   S  Q    E   S   S   S   S
|------3---2---3--------3---2---3--|-3----2---3-------3---2---3---2---3--|
|----------------------------------|-------------------------------------|
|-0---(0)-(0)-(0)--0---(0)-(0)-(0)-|-0---(0)-(0)-0---(0)-(0)-(0)-(0)-(0)-|
|-2---(2)-(2)-(2)--4---(4)-(4)-(4)-|-5---(5)-(5)-4---(4)-(4)-(4)-(4)-(4)-|
|-3---(3)-(3)-(3)--5---(5)-(5)-(5)-|-7---(7)-(7)-5---(5)-(5)-(5)-(5)-(5)-|
|----------------------------------|-------------------------------------|
|
| E E  E   E       E E  E   E        E E  E      E E  E   E       E
|----------------------------------|-------------------------------------|
|----------------------------------|-------------------------------------|
|------0----------------0----------|------0-----------0------------------|
|---2------2---------4------4------|---5-----------4------4--------------|
|-3---------------/5---------------|-7-----------5----------------5------|
|----------------------------------|-------------------------------------|


  C               Dadd11             Em          Dadd11
  Gtr Gtr III     Gtr IGtr III       Gtr Gtr III   Gtr IIGtr III
  e e  e   e       e e  e   e        e e  e      e e  e   e       e
|-3----3-----------3----3----------|-3----3------3----3-----------3--------|
|-5----5-----------7----7----------|-8----8------7----7-----------7--------|
|-5----5-----------7----7----------|-9----9------7----7-----------7--------|
|----------------------------------|---------------------------------------|
|----------------------------------|---------------------------------------|
|----------------------------------|---------------------------------------|
|
| Q    E   S   S   Q    E   S   S    Q    S   S  Q    E   S   S   S   S
|------3---2---3--------3---2---3--|-3----2---3-------3---2---3---2---3----|
|----------------------------------|---------------------------------------|
|-0---(0)-(0)-(0)--0---(0)-(0)-(0)-|-0---(0)-(0)-0---(0)-(0)-(0)-(0)-(0)---|
|-2---(2)-(2)-(2)--4---(4)-(4)-(4)-|-5---(5)-(5)-4---(4)-(4)-(4)-(4)-(4)---|
|-3---(3)-(3)-(3)--5---(5)-(5)-(5)-|-7---(7)-(7)-5---(5)-(5)-(5)-(5)-(5)---|
|----------------------------------|---------------------------------------|
|
| E E  E   E       E E  E   E        E E  E      E E  E   E       E
|----------------------------------|---------------------------------------|
|----------------------------------|---------------------------------------|
|------0----------------0----------|------0-----------0--------------------|
|---2------2---------4------4------|---5-----------4------4----------------|
|-3---------------/5---------------|-7-----------5----------------5--------|
|----------------------------------|---------------------------------------|


  Em7/C                      Emadd9/D   Em G/E
  Gtr I
  E E S S S E.   E S S E      E E S S S E. E S S S S
|-0-0-0-0-0-3----3-3-3-3---|--0-0-0-0-0-0--7-7-7-7-7-|
|-3-3-3-3-3-3----3-3-3-3---|--5-5-5-5-5-0--0-0-0-0-0-|
|-0-0-0-0-0-0----0-0-0-0---|--0-0-0-0-0-0--0-0-0-0-0-|
|-2-2-2-2-2-2----2-2-2-2---|--4-4-4-4-4-5--5-5-5-5-5-|
|-3-3-3-3-3-3----3-3-3-3---|--5-5-5-5-5-7--7-7-7-7-7-|
|--------------------------|-------------------------|
|
| Gtrs II, III
| E E E   E    E E E   S S    E E E   S E. E E   E
|--------------------------|-------------------------|
|--------------------------|-------------------------|
|-----0------------0-----0-|------0---x------0-------|
|---2-----2------2-----2---|----4----------5-----5---|
|-3------------3-----------|-/5---------7------------|
|--------------------------|-------------------------|


  Em7/C                      Emadd9/D   G/E
  E E S S S E.   E S S E      E E S S S S  E   E   E   E
|-0-0-0-0-0-3----3-3-3-3---|--0-0-0-0-0-7-(7)-(7)-(7)-(7)---|
|-3-3-3-3-3-3----3-3-3-3---|--5-5-5-5-5-0-(0)-(0)-(0)-(0)---|
|-0-0-0-0-0-0----0-0-0-0---|--0-0-0-0-0-0-(0)-(0)-(0)-(0)---|
|-2-2-2-2-2-2----2-2-2-2---|--4-4-4-4-4-5-(5)-(5)-(5)-(5)---|
|-3-3-3-3-3-3----3-3-3-3---|--5-5-5-5-5-7-(7)-(7)-(7)-(7)---|
|--------------------------|--------------------------------|
|
| E E E   E    E E E   S S    E E E   S S +H
|--------------------------|------------7-(7)---------------|
|--------------------------|------------8-(8)---------------|
|-----0------------0-----0-|------0---x-9-(9)---------------|
|---2-----2------2-----2---|----4---------------------------|
|-3------------3-----------|-/5-----------------------------|
|--------------------------|--------------------------------|


 Solo Out
  Em          C         G           D
  PM-|        PM|       PM-|        PM|
  e  E    Q   e E Q     e  E    Q   E E S    S     S   S
|---------0-------0---|---------3-------2----3-----2---0--|
|---------0-------1---|---------3-------3---(3)---(3)-(3)-|
|---------0-------0---|---------0-------2---(2)---(2)-(2)-|
|---------2-------2---|---------0---0-0-0---(0)---(0)-(0)-|
|---------2---3-3-3---|---------2-------------------------|
|-0--0----------------|-3--3------------------------------|
|
| Gtr VI
|                                       |---3---|
| E.   E.   Q   E E E   E.   E.   Q   E S S     S  E
|-8----7----5---------|-----------------------------------|
|---------------8-5---|-----------------------------------|
|-------------------7-|-5----4----2-----0h2p====0---------|
|---------------------|---------------4------------4------|
|---------------------|-----------------------------------|
|---------------------|-----------------------------------|


  Em       C               G             D
  PM--|     PM-|           PM--|         PM|
  e   E Q   e  E Q         e   E    Q    E E S    S     S   S
|-------0--------0-------|----------3--------2----3-----2---0----|
|-------0--------1-------|----------3--------3---(3)---(3)-(3)---|
|-------0--------0-------|----------0--------2---(2)---(2)-(2)---|
|-------2--------2-------|----------0----0-0-0---(0)---(0)-(0)---|
|-------2---3--3-3-------|----------2----------------------------|
|-0---0------------------|-3---3---------------------------------|
|
|                |-3-|                       |---3---|
| H        +E  E S S S E   E.    E.   Q.     S S     S  E
|------------------------|---------------------------------------|
|------------------------|---------------------------------------|
|-0--------(0)---0h2p0---|-0-----0----0------0h2p====0-----------|
|-4b5----------4-------4-|-4b5---4----0-----------------4--------|
|------------------------|---------------------------------------|
|------------------------|---------------------------------------|


  Em       C               G             D
  PM--|     PM-|           PM--|         PM|
  e   E Q   e  E Q         e   E    Q    E E S    S     S   S
|-------0--------0-------|----------3--------2----3-----2---0--|
|-------0--------1-------|----------3--------3---(3)---(3)-(3)-|
|-------0--------0-------|----------0--------2---(2)---(2)-(2)-|
|-------2--------2-------|----------0----0-0-0---(0)---(0)-(0)-|
|-------2---3--3-3-------|----------2--------------------------|
|-0---0------------------|-3---3-------------------------------|
|
|                |-3-|                       |---3---|
| H        +E  E S S S E   E.    E.   Q.     S S     S  E
|------------------------|-------------------------------------|
|------------------------|-------------------------------------|
|-0--------(0)---0h2p0---|-0-----0----0------0h2p====0---------|
|-4b5----------4-------4-|-4b5---4----0-----------------4------|
|------------------------|-------------------------------------|
|------------------------|-------------------------------------|


  Em           C            G              D
  PM--|        PM|           PM-|          PM|
  e   E    Q   e  E  Q       e  E     Q    E  E  S  S   S   S
|----------0---------0----|-----------3----------2--3---2---0---|
|----------0---------1----|-----------3----------3-(3)-(3)-(3)--|
|----------0---------0----|-----------0----------2-(2)-(2)-(2)--|
|----------2---------2----|-----------0----0--0--0-(0)-(0)-(0)--|
|----------2---3--3--3----|-----------2-------------------------|
|-0---0-------------------|--3--3-------------------------------|
|
| E.    E.   Q    E  E  E    E.    E.    Q    E  E      E
|-------------------------|-------------------------------------|
|-------------------------|-------------------------------------|
|-0-----0----0----0--0--0-|--0-----0-----0----0--0------0-------|
|-4b5---7----9---10-12-14-|-16----17----19---21-22-----21-------|
|-------------------------|-------------------------------------|
|-------------------------|-------------------------------------|


  Em         C                 G                 D
   PM---|    PM|                PM---|           PM|
   e    E Q  e E  Q             e    E     Q     E E  S   S       S   S
|---------0-------0----------|-------------3----------2---3-------2---0--|
|---------0-------1----------|-------------3----------3--(3)-----(3)-(3)-|
|---------0-------0----------|-------------0----------2--(2)-----(2)-(2)-|
|---------2-------2----------|-------------0-----0-0--0--(0)-----(0)-(0)-|
|---------2--3-3--3----------|-------------2-----------------------------|
|--0----0--------------------|--3----3-----------------------------------|
|
|                 |--3--|
|  H.             S  S  S  E    E.      E.    Q.      S  +S      +S   S
|----------------------------|-------------------------------------------|
|----------------------------|-------------------------------------------|
|--0-------------12h14p12----|--0-------0-----0------14-(14)b16-(14)-12--|
|-16b17-------------------16-|-16b17---16----12--------------------------|
|----------------------------|-------------------------------------------|
|----------------------------|-------------------------------------------|


  Em       C                        G              D
   PM|     PM|                       PM-|          PM|
   e  E Q  e E  Q                    e  E     Q    E  E  S   S       S   S
|-------0-------0-----------------|-----------3----------2---3-------2---0----|
|-------0-------1-----------------|-----------3----------3--(3)-----(3)-(3)---|
|-------0-------0-----------------|-----------0----------2--(2)-----(2)-(2)---|
|-------2-------2-----------------|-----------0----0--0--0--(0)-----(0)-(0)---|
|-------2--3-3--3-----------------|-----------2-------------------------------|
|--0--0---------------------------|--3--3-------------------------------------|
|
|                                    ~~~~~~~~~~~~~~
|  e  E H       S  +S      +S   S    E.    E.    Q    E  S  +S      +S   S
|---------------------------------|-------------------------------------------|
|---------------------------------|-------------------------------------------|
|--------------14-(14)b16-(14)-12-|-14----12----14---12-14-(14)b16-(14)-12----|
|-14-14---------------------------|-------------------------------------------|
|---------------------------------|-------------------------------------------|
|---------------------------------|-------------------------------------------|


  Em       C                        G              D
   PM|     PM|                       PM-|          PM|
   e  E Q  e E  Q                    e  E     Q    E  E  S   S       S   S
|-------0-------0-----------------|-----------3----------2---3-------2---0--|
|-------0-------1-----------------|-----------3----------3--(3)-----(3)-(3)-|
|-------0-------0-----------------|-----------0----------2--(2)-----(2)-(2)-|
|-------2-------2-----------------|-----------0----0--0--0--(0)-----(0)-(0)-|
|-------2--3-3--3-----------------|-----------2-----------------------------|
|--0--0---------------------------|--3--3-----------------------------------|
|
|                                    ~~~~~~~~~~~~~~
|  e  E H       S  +S      +S   S    E.    E.    Q    E  S  +S      +S   S
|---------------------------------|-----------------------------------------|
|---------------------------------|-----------------------------------------|
|--------------14-(14)b16-(14)-12-|-14----12----14---12-14-(14)b16-(14)-12--|
|-14-14---------------------------|-----------------------------------------|
|---------------------------------|-----------------------------------------|
|---------------------------------|-----------------------------------------|


  Em               C                         G              D
   PM----|         PM|                        PM-|          PM|
   e      E     Q  e  E  Q                    e  E     Q    E  E           S        S        S   S
|---------------0--------0-----------------|-----------3-------------------2--------3--------2---0-|
|---------------0--------1-----------------|-----------3-------------------3-------(3)------(3)-(3)|
|---------------0--------0-----------------|-----------0-------------------2-------(2)------(2)-(2)|
|---------------2--------2-----------------|-----------0----0--0-----------0-------(0)------(0)-(0)|
|---------------2--3--3--3-----------------|-----------2-------------------------------------------|
|--0------0--------------------------------|--3--3-------------------------------------------------|
|
|                                             ~~~~~~~~~
|  e      E     Q  E  E  S   S       S   S    E.    E.    Q    S  +S      +S       +S        S   S
|-----------------------14h=15p=====14-----|-15----------15---15-(15)b17-(15)pb19-(15)pb17--17--15-|
|-15pb17-15pb17------15-----------------15-|-------15----------------------------------------------|
|-----------------------14-(14)b16-(14)-12-|-12----14----12---12----------14------(14)b16--(14)-12-|
|-14-----14--------------------------------|-------------------------------------------------------|
|------------------------------------------|-------------------------------------------------------|
|------------------------------------------|-------------------------------------------------------|
   E      E     H        S  +S      +S   S    E.    E.    Q    E           S       +S       +S   S


  Em             C                            G              D
   PM---|        PM|                           PM-|          PM|
   e     E    Q  e  E     Q                    e  E     Q    E  E  S   S       S   S
|-------------0-----------0-----------------|-----------3----------2---3-------2---0--|
|-------------0-----------1-----------------|-----------3----------3--(3)-----(3)-(3)-|
|-------------0-----------0-----------------|-----------0----------2--(2)-----(2)-(2)-|
|-------------2-----------2-----------------|-----------0----0--0--0--(0)-----(0)-(0)-|
|-------------2--3--3-----3-----------------|-----------2-----------------------------|
|--0-----0----------------------------------|--3--3-----------------------------------|
|
|                                              ~~~~~~~~~~~~~~
|  E     E    Q  E  S  S  S   S       S   S    E.    E.    Q    E  E           E
|-12----12---------------12--15------12-----|-15----14----15---17-19----------17------|
|-15b17-15b17------12-15-----------------15-|-----------------------------------------|
|------------------------14-(14)b16-(14)-12-|-12----14----12---12-14-(14)b16-(14)-12--|
|-14----14----------------------------------|-----------------------------------------|
|-------------------------------------------|-----------------------------------------|
|-------------------------------------------|-----------------------------------------|
   E     E    H           S  +S      +S   S    E.    E.    Q    E  S  +S      +S   S


  Em                C            G              D
   PM---|           PM|           PM-|          PM|
   e    E      Q    e  E  Q       e  E     Q    E  E  S     S      S   S
|--------------0----------0----|-----------3----------2-----3------2---0--|
|--------------0----------1----|-----------3----------3----(3)----(3)-(3)-|
|--------------0----------0----|-----------0----------2----(2)----(2)-(2)-|
|--------------2----------2----|-----------0----0--0--0----(0)----(0)-(0)-|
|--------------2----3--3--3----|-----------2------------------------------|
|--0----0----------------------|--3--3------------------------------------|
|
|                                                     |----3----|
|  E.      +E.    Q    E  E  E    E.    E.    Q    E  S  S      S  E
|-19b20---(19)---17------------|---------------------15h17p====15---------|
|---------------------20-17----|------------------19--------------19------|
|-16b17---(16)---14---------19-|-17----16----14------12h14p====12---------|
|---------------------17-14----|-17----17----16---16--------------16------|
|---------------------------19-|------------------------------------------|
|------------------------------|------------------------------------------|
   E.      +E.    Q    E  E  E    E.    E.    Q    E  S  S      S  E
                                                      |----3----|


  Em         C                 G                 D
   PM---|    PM|                PM---|           PM|
   e    E Q  e E  Q             e    E     Q     E E  S     S      S   S
|---------0-------0----------|-------------3----------2-----3------2---0--|
|---------0-------1----------|-------------3----------3----(3)----(3)-(3)-|
|---------0-------0----------|-------------0----------2----(2)----(2)-(2)-|
|---------2-------2----------|-------------0-----0-0--0----(0)----(0)-(0)-|
|---------2--3-3--3----------|-------------2------------------------------|
|--0----0--------------------|--3----3------------------------------------|
|
|                 |--3--|                             |----3----|
|  H.             S  S  S  E    E.      E.    Q.      S  S      S  E
|-15-------------15h17p15----|-15------14------------15h17p====15---------|
|-------------------------19-|---------------15-------------------19------|
|--0-------------12h14p12----|--0-------0-----0------12h14p====12---------|
|-16b17-------------------16-|-16b17---16----12-------------------16------|
|----------------------------|--------------------------------------------|
|----------------------------|--------------------------------------------|
   H.             S  S  S  E    E.      E.    Q.      S  S      S  E
                  |--3--|                             |----3----|


  Em         C                 G                 D
   PM---|    PM|                PM---|           PM|
   e    E Q  e E  Q             e    E     Q     E  E  S     S      S   S
|---------0-------0----------|-------------3-----------2-----3------2---0---|
|---------0-------1----------|-------------3-----------3----(3)----(3)-(3)--|
|---------0-------0----------|-------------0-----------2----(2)----(2)-(2)--|
|---------2-------2----------|-------------0-----0--0--0----(0)----(0)-(0)--|
|---------2--3-3--3----------|-------------2--------------------------------|
|--0----0--------------------|--3----3--------------------------------------|
|
|                 |--3--|
|  H.             S  S  S  E    E.      E.    Q     E  Q
|-15-------------15h17p15----|-15------14-----------------------------------|
|-------------------------19-|---------------15-----------------------------|
|--0-------------12h14p12----|--0-------0-----0----14-12h14p====12----------|
|-16b17-------------------16-|-16b17---16----12--------------------16-------|
|----------------------------|----------------------------------------------|
|----------------------------|----------------------------------------------|
   H.             S  S  S  E    E.      E.    Q.       S  S      S  E
                  |--3--|                              |----3----|


  Em               G           G           D
   PM---|          PM|         PM-|        PM|
   e    E     Q    e  E Q      e  E    Q   E E S    S     S   S
|-------------0---------0----|---------3-------2----3-----2---0--|
|-------------0---------1----|---------3-------3---(3)---(3)-(3)-|
|-------------0---------0----|---------0-------2---(2)---(2)-(2)-|
|-------------2---------2----|---------0---0-0-0---(0)---(0)-(0)-|
|-------------2----3--3-3----|---------2-------------------------|
|--0----0--------------------|-3--3------------------------------|
|
|                                              |---3---|
|  E.      E.    Q    E E  E   E.   E.   Q   E S S     S  E
|----------------------------|-----------------------------------|
|----------------------------|-----------------------------------|
|--0-------0-----0----0-0--0-|-0----0----0-----0h2p====0---------|
|-16b17---16----12---10-9-10-|-9----7----5---4------------4------|
|----------------------------|-----------------------------------|
|----------------------------|-----------------------------------|


  Em       C            G       D
  PM--|    PM|          PM-|    PM|
  e   E Q  e  E   Q     e  E Q  E E S  S   S   S
|-------0---------0---|------3------2--3---2---0---|
|-------0---------1---|------3------3-(3)-(3)-(3)--|
|-------0---------0---|------0------2-(2)-(2)-(2)--|
|-------2---------2---|------0--0-0-0-(0)-(0)-(0)--|
|-------2--3--3---3---|------2---------------------|
|-0---0---------------|-3--3-----------------------|
|
| H.          E   E     H.          S  S   S   S
|---------------------|----------------------------|
|---------------------|----------------------------|
|-0----------(0)-(0)--|-0--------------------------|
|-4b5---------4---2---|-0------------------0-------|
|---------------------|-------------0h=2-------2---|
|---------------------|----------------------------|


  Em                  C                     G                   D
  PM|                 PM|                   PM|                 PM|
  e E  Q              e E  Q                e E  Q              E E S  S   S   S
|------0-------------------0--------------|------3------------------2--3---2---0--|
|------0-------------------1--------------|------3------------------3-(3)-(3)-(3)-|
|------0-------------------0--------------|------0------------------2-(2)-(2)-(2)-|
|------2-------------------2--------------|------0--------------0-0-0-(0)-(0)-(0)-|
|------2--------------3-3--3--------------|------2--------------------------------|
|-0-0-------------------------------------|-3-3-----------------------------------|
|
| e E  S   S   S   S  e E  S   S   S   S    e E  S   S   S   S  e E S  E.
|-----------------------------------------|---------------------------------------|
|-----------------------------------------|---------------------------------------|
|-----------------------------------------|---------------------------------------|
|-----(x)-(x)-(x)-(x)-----(x)-(x)-(x)-(x)-|-----(x)-(x)-(x)-(x)-0-0-x-------------|
|-----(x)-(x)-(x)-(x)-3-3-(x)-(x)-(x)-(x)-|-----(x)-(x)-(x)-(x)-----x-------------|
|-0-0-(x)-(x)-(x)-(x)-----(x)-(x)-(x)-(x)-|-3-3--2---3--(3)-(x)-----x--3----------|


  Em                  C                     G                   D
  PM|                 PM|                   PM|                 PM|
  e E  Q              e E  Q                e E  Q              E E S  S   S   S
|------0-------------------0--------------|------3------------------2--3---2---0-----|
|------0-------------------1--------------|------3------------------3-(3)-(3)-(3)----|
|------0-------------------0--------------|------0------------------2-(2)-(2)-(2)----|
|------2-------------------2--------------|------0--------------0-0-0-(0)-(0)-(0)----|
|------2--------------3-3--3--------------|------2-----------------------------------|
|-0-0-------------------------------------|-3-3--------------------------------------|
|
| e E  S   S   S   S  e E  S   S   S   S    e E  S   S   S   S  e E S  E.
|-----------------------------------------|------------------------------------------|
|-----------------------------------------|------------------------------------------|
|-----------------------------------------|------------------------------------------|
|-----(x)-(x)-(x)-(x)-----(x)-(x)-(x)-(x)-|-----(x)-(x)-(x)-(x)-0-0-x----------------|
|-----(x)-(x)-(x)-(x)-3-3-(x)-(x)-(x)-(x)-|-----(x)-(x)-(x)-(x)-----x----------------|
|-0-0-(x)-(x)-(x)-(x)-----(x)-(x)-(x)-(x)-|-3-3--2---3--(3)-(x)-----x--3-------------|


  Em                  C                     G                   D
  PM|                 PM|                   PM|                 PM|
  e E  Q              e E  Q                e E  Q              E E S  S   S   S
|------0-------------------0--------------|------3------------------2--3---2---0--|
|------0-------------------1--------------|------3------------------3-(3)-(3)-(3)-|
|------0-------------------0--------------|------0------------------2-(2)-(2)-(2)-|
|------2-------------------2--------------|------0--------------0-0-0-(0)-(0)-(0)-|
|------2--------------3-3--3--------------|------2--------------------------------|
|-0-0-------------------------------------|-3-3-----------------------------------|
|
| e E  S   S   S   S  e E  S   S   S   S    e E  S   S   S   S  e E S  E.
|-----------------------------------------|---------------------------------------|
|-----------------------------------------|---------------------------------------|
|-----------------------------------------|---------------------------------------|
|-----(x)-(x)-(x)-(x)-----(x)-(x)-(x)-(x)-|-----(x)-(x)-(x)-(x)-0-0-x-------------|
|-----(x)-(x)-(x)-(x)-3-3-(x)-(x)-(x)-(x)-|-----(x)-(x)-(x)-(x)-----x-------------|
|-0-0-(x)-(x)-(x)-(x)-----(x)-(x)-(x)-(x)-|-3-3--2---3--(3)-(x)-----x--3----------|


  Em                  C                     G                   D
  PM|                 PM|                   PM|                 PM|
  e E  Q              e E  Q                e E  Q              E E S  S   S   S
|------0-------------------0--------------|------3------------------2--3---2---0-----*|
|------0-------------------1--------------|------3------------------3-(3)-(3)-(3)----*|
|------0-------------------0--------------|------0------------------2-(2)-(2)-(2)----*|
|------2-------------------2--------------|------0--------------0-0-0-(0)-(0)-(0)----*|
|------2--------------3-3--3--------------|------2-----------------------------------*|
|-0-0-------------------------------------|-3-3--------------------------------------*|
|
| e E  S   S   S   S  e E  S   S   S   S    e E  S   S   S   S  e E S  E.
|-----------------------------------------|------------------------------------------*|
|-----------------------------------------|------------------------------------------*|
|-----------------------------------------|------------------------------------------*|
|-----(x)-(x)-(x)-(x)-----(x)-(x)-(x)-(x)-|-----(x)-(x)-(x)-(x)-0-0-x----------------*|
|-----(x)-(x)-(x)-(x)-3-3-(x)-(x)-(x)-(x)-|-----(x)-(x)-(x)-(x)-----x----------------*|
|-0-0-(x)-(x)-(x)-(x)-----(x)-(x)-(x)-(x)-|-3-3--2---3--(3)-(x)-----x--3-------------*|


Duration Legend
---------------
W - whole; H - half; Q - quarter; E - 8th; S - 16th; T - 32nd; X - 64th; a - acciaccatura
+ - note tied to previous; . - note dotted; .. - note double dotted
Uncapitalized letters represent notes that are staccato (1/2 duration)
Irregular groupings are notated above the duration line
Duration letters will always appear directly above the note/fret number it represents the
duration for.  Duration letters with no fret number below them represent rests.  Multi-
bar rests are notated in the form Wxn, where n is the number of bars to rest for.  Low
melody durations appear below the staff

Tablature Legend
----------------
 h   - hammer-on
 p   - pull-off
 b   - bend
 pb  - pre-bend
 r   - bend release (if no number after the r, then release immediately)
 /\  - slide into or out of (from/to "nowhere")
 s   - legato slide
 S   - shift slide
  - natural harmonic
[n]  - artificial harmonic
n(n) - tapped harmonic
 ~   - vibrato
 tr  - trill
 T   - tap
 TP  - trem. picking
 PM  - palm muting
\n/  - tremolo bar dip; n = amount to dip
 \n  - tremolo bar down
 n/  - tremolo bar up
/n\  - tremolo bar inverted dip
 =   - hold bend; also acts as connecting device for hammers/pulls
 <>  - volume swell (louder/softer)
 x   - on rhythm slash represents muted slash
 o   - on rhythm slash represents single note slash

Misc Legend
-----------
 |  - bar
||  - double bar
||o - repeat start
o|| - repeat end
*|  - double bar (ending)
 :  - bar (freetime)
 $  - Segno
 &  - Coda
Tempo markers -  = BPM(8/16=s8/s16), where s8 = swing 8ths, s16 = swing 16ths


***************************************************************************************
***************************************************************************************





Comments


Popular Quinn Peck tabs & chords
Out In The Cold Bass Tabs
Buy Yourself Tabs
Going Down Tabs
Motorized Miracles Forever Tabs
Out In The Cold Tabs
Shifting Time Tabs
The Girl I Love Tabs
The Midnight Sun Tabs
Walking Alone Tabs
Wonderful Week Tabs


Song lyrics



↑ Back to top | Tablatures and chords are parodies/interpretations of the original songs. You may use it for private study, scholarship, research or language learning purposes only
© 2014 AZChords.com Contact us | Privacy policy | DMCA | Add/correct tabs | Request tabs | Top 50 tabs