>
 >
Going Down

Going Down Guitar Tabs

Quinn Peck - Going Down chords, tabs, tablatures, lyrics

Guitar lessons | Add/correct | Request | Top 50 tabs Artists:  A B C D E F G H I J K L M N O P Q R S T U V W X Y Z 0-9

Going Down Guitar Tabs – Quinn Peck

CD, Sheet music, Poster

Do you like Going Down? Share with your friends now
Bass TabsTabs
#------------------------------------------------------------------------------##

                                   GOING DOWN
                            As recorded by Quinn Peck

Music by Quinn Peck

Gtr I (E A D G B E) - 'Untitled'
Gtr II (E A D G B E) - 'Untitled'
Gtr III (E A D G B E) - 'Untitled'

   Intro
    Q=100
    N.C.
   4/4
    Gtr I
    Q   E S E S E  E E   E E  E S E S E  E  E
||---------------------|----------------------|
||o--------------------|----------------------|
||-----11---------11---|-----12---------12-14-|
||--0-----0-0-0-0----0-|-0-0----0-0-0-0-------|
||o--------------------|----------------------|
||---------------------|----------------------|


                                             |--3--|
  E E  E S E S E  E S S   E E  E S E S E  E  S  S  S
|-----------------------|-------------------------------||
|-----------------------|------------------------------o||
|-----11---------11-----|-----12---------12-11h12p11----||
|-0-0----0-0-0-0----0-0-|-0-0----0-0-0-0----------------||
|-----------------------|------------------------------o||
|-----------------------|-------------------------------||


   Verse 1
    Bm        A        G
    Q   E S E   S E  E E    E  E  E S E S E  E  E
||-----------------------|------------------------|
||o----------------------|------------------------|
||-----11-----------11---|-------12---------12-14-|
||--0-----0-0---0-0----0-|--0--0----0-0-0-0-------|
||o----------------------|------------------------|
||-----------------------|------------------------|
|
|   Gtr II
|   Q   E S S Q      E E   +W
||--7---x-x-x-5------x-3-|-(3)--------------------|
||o-7---x-x-x-5------x-3-|-(3)--------------------|
||--7---x-x-x-6------x-4-|-(4)--------------------|
||--9---x-x-x-7------x-5-|-(5)--------------------|
||o-9---x-x-x-7------x-5-|-(5)--------------------|
||--7---x-x-x-5------x-3-|-(3)--------------------|


  Bm         A        G                      G  A
                                                 |--3--|
  E E  E S E   S E  E S S    E  E  E S E S E  E  S  S  S   3x
|-------------------------|--------------------------------||
|-------------------------|-------------------------------o||
|-----11-----------11-----|-------12---------12-11h12p11---||
|-0-0----0-0---0-0----0-0-|--0--0----0-0-0-0---------------||
|-------------------------|-------------------------------o||
|-------------------------|--------------------------------||
|
| Q    E S S Q      E E     +H.               E  E         3x
|-7----x-x-x-5------x-3---|-(3)---------------3--5---------||
|-7----x-x-x-5------x-3---|-(3)---------------3--5--------o||
|-7----x-x-x-6------x-4---|-(4)---------------4--6---------||
|-9----x-x-x-7------x-5---|-(5)---------------5--7---------||
|-9----x-x-x-7------x-5---|-(5)---------------5--7--------o||
|-7----x-x-x-5------x-3---|-(3)---------------3--5---------||


  Bm        A        G
  Q   E S E   S E  E E    E  E  E S E S E  E  E
|----------------------|------------------------|
|----------------------|------------------------|
|----11-----------11---|-------12---------12-14-|
|-0-----0-0---0-0----0-|--0--0----0-0-0-0-------|
|----------------------|------------------------|
|----------------------|------------------------|
|
| Q   E S S Q      E E   +W
|-7---x-x-x-5------x-3-|-(3)--------------------|
|-7---x-x-x-5------x-3-|-(3)--------------------|
|-7---x-x-x-6------x-4-|-(4)--------------------|
|-9---x-x-x-7------x-5-|-(5)--------------------|
|-9---x-x-x-7------x-5-|-(5)--------------------|
|-7---x-x-x-5------x-3-|-(3)--------------------|


  Bm         A        G
                                                   |--3--|
  E E  E S E   S E  E S S    E  E  E S E   S E  E  S  S  S
|-------------------------|---------------------------------|
|-------------------------|---------------------------------|
|-----11-----------11-----|-------12-----------12-11h12p11--|
|-0-0----0-0---0-0----0-0-|--0--0----0-0---0-0--------------|
|-------------------------|---------------------------------|
|-------------------------|---------------------------------|
|
| Q    E S S Q      E E     +H           E   E  E  E
|-7----x-x-x-5------x-3---|-(3)----------3---3--3--3--------|
|-7----x-x-x-5------x-3---|-(3)----------3---3--3--3--------|
|-7----x-x-x-6------x-4---|-(4)----------4---4--4--4--------|
|-9----x-x-x-7------x-5---|-(5)----------5---5--5--5--------|
|-9----x-x-x-7------x-5---|-(5)----------5---5--5--5--------|
|-7----x-x-x-5------x-3---|-(3)----------3---3--3--3--------|


 Chorus
  G        D           A             Bm
  Q  E E   E E E E     +H.                  E E
|--------------------|----------------------------|
|------5---7-5-------|----------------------------|
|-7--7---------7-----|------------------------6---|
|----------------7---|-(7)------------------7-----|
|--------------------|----------------------------|
|--------------------|----------------------------|
|
| Q  E S S Q   E S S    E  +S  S S S E +Q   E S S
|-3--3-x-x-----------|--5--(5)-x-x-x-7-(7)--7-x-x-|
|-3--3-x-x-7---7-x-x-|--5--(5)-x-x-x-7-(7)--7-x-x-|
|-4--4-x-x-7---7-x-x-|--6--(6)-x-x-x-7-(7)--7-x-x-|
|-5--5-x-x-7---7-x-x-|--7--(7)-x-x-x-9-(9)--9-x-x-|
|-5--5-x-x-5---5-x-x-|--7--(7)-x-x-x-9-(9)--9-x-x-|
|-3--3-x-x-----------|--5--(5)-x-x-x-7-(7)--7-x-x-|


  G        D          A
  Q  E E   E  E   E   E   +H.      E E
|-----------------5-----|------------------|
|------5---7--8-------5-|-(5)--------5-----|
|-7--7------------------|------------------|
|-----------------------|----------7-------|
|-----------------------|------------------|
|-----------------------|------------------|
|
| Q  E S S E.   S S S E   +H.      E S S
|-3--3-x-x------------5-|-(5)------5-x-x---|
|-3--3-x-x-7----x-x-x-5-|-(5)------5-x-x---|
|-4--4-x-x-7----x-x-x-6-|-(6)------6-x-x---|
|-5--5-x-x-7----x-x-x-7-|-(7)------7-x-x---|
|-5--5-x-x-5----x-x-x-7-|-(7)------7-x-x---|
|-3--3-x-x------------5-|-(5)------5-x-x---|


  G         D           A             Bm
  Q   E E   E E E E     +H.                  E E
|---------------------|----------------------------|
|-------5---7-5-------|----------------------------|
|-7---7---------7-----|------------------------6---|
|-----------------7---|-(7)------------------7-----|
|---------------------|----------------------------|
|---------------------|----------------------------|
|
| E E E S S E E E S S    E  +S  S S S E +Q   E S S
|-3-3-3-x-x-----------|--5--(5)-x-x-x-7-(7)--7-x-x-|
|-3-3-3-x-x-7-7-7-x-x-|--5--(5)-x-x-x-7-(7)--7-x-x-|
|-4-4-4-x-x-7-7-7-x-x-|--6--(6)-x-x-x-7-(7)--7-x-x-|
|-5-5-5-x-x-7-7-7-x-x-|--7--(7)-x-x-x-9-(9)--9-x-x-|
|-5-5-5-x-x-5-5-5-x-x-|--7--(7)-x-x-x-9-(9)--9-x-x-|
|-3-3-3-x-x-----------|--5--(5)-x-x-x-7-(7)--7-x-x-|


  G         D       A
  Q   E E   E E E    E    +H.            E  E
|---------------5------|-----------------------|
|-------5---7-8------5-|--(5)----------/15-14--|
|-7---7----------------|-----------------------|
|----------------------|-----------------------|
|----------------------|-----------------------|
|----------------------|-----------------------|
|
| E E E S S Q   S S  E    +H      E  E   E  E
|-3-3-3-x-x------------|-----------------------|
|-3-3-3-x-x-7---x-x-14-|-(14)------------------|
|-4-4-4-x-x-7---x-x-14-|-(14)------------------|
|-5-5-5-x-x-7---x-x-14-|-(14)----14-14--12-11--|
|-5-5-5-x-x-5---x-x-12-|-(12)------------------|
|-3-3-3-x-x------------|-----------------------|


   Verse 2
    Bm        A        G
    Gtr I
    Q   E S E   S E  E E    E  E  E S E S E  E  E
||-----------------------|------------------------|
||o----------------------|------------------------|
||-----11-----------11---|-------12---------12-14-|
||--0-----0-0---0-0----0-|--0--0----0-0-0-0-------|
||o----------------------|------------------------|
||-----------------------|------------------------|
|
|   Q   E S S Q      E E   +W
||--7---x-x-x-5------x-3-|-(3)--------------------|
||o-7---x-x-x-5------x-3-|-(3)--------------------|
||--7---x-x-x-6------x-4-|-(4)--------------------|
||--9---x-x-x-7------x-5-|-(5)--------------------|
||o-9---x-x-x-7------x-5-|-(5)--------------------|
||--7---x-x-x-5------x-3-|-(3)--------------------|


  Bm         A        G                      G  A
                                                 |--3--|
  E E  E S E   S E  E S S    E  E  E S E S E  E  S  S  S   3x
|-------------------------|--------------------------------||
|-------------------------|-------------------------------o||
|-----11-----------11-----|-------12---------12-11h12p11---||
|-0-0----0-0---0-0----0-0-|--0--0----0-0-0-0---------------||
|-------------------------|-------------------------------o||
|-------------------------|--------------------------------||
|
| Q    E S S Q      E E     +H.               E  E         3x
|-7----x-x-x-5------x-3---|-(3)---------------3--5---------||
|-7----x-x-x-5------x-3---|-(3)---------------3--5--------o||
|-7----x-x-x-6------x-4---|-(4)---------------4--6---------||
|-9----x-x-x-7------x-5---|-(5)---------------5--7---------||
|-9----x-x-x-7------x-5---|-(5)---------------5--7--------o||
|-7----x-x-x-5------x-3---|-(3)---------------3--5---------||


  Bm         A      G
  Q   Q.       E  E E    E  E  H       E  E
|---------------------|---------------------|
|---------------------|---------------------|
|----11----------11---|-------12------12-14-|
|-0------------0----0-|--0--0---------------|
|---------------------|---------------------|
|---------------------|---------------------|
|
| Q   E  S S Q    E E   +Q     E E Q   E  E
|-7---x--x-x-5----x-3-|-(3)----3-3-3---3--3-|
|-7---x--x-x-5----x-3-|-(3)----3-3-3---3--3-|
|-7---x--x-x-6----x-4-|-(4)----4-4-4---4--4-|
|-9---x--x-x-7----x-5-|-(5)----5-5-5---5--5-|
|-9---x--x-x-7----x-5-|-(5)----5-5-5---5--5-|
|-7---x--x-x-5----x-3-|-(3)----3-3-3---3--3-|


  Bm          A      G
                                             |--3--|
  E E  Q.       E  E S S    E  E  H       E  S  S  S
|------------------------|----------------------------|
|------------------------|----------------------------|
|-----11----------11-----|-------12------12-11h12p11--|
|-0-0-----------0----0-0-|--0--0----------------------|
|------------------------|----------------------------|
|------------------------|----------------------------|
|
| Q    E  S S Q    E E     +Q     E E Q   E  E
|-7----x--x-x-5----x-3---|-(3)----3-3-3---3--3--------|
|-7----x--x-x-5----x-3---|-(3)----3-3-3---3--3--------|
|-7----x--x-x-6----x-4---|-(4)----4-4-4---4--4--------|
|-9----x--x-x-7----x-5---|-(5)----5-5-5---5--5--------|
|-9----x--x-x-7----x-5---|-(5)----5-5-5---5--5--------|
|-7----x--x-x-5----x-3---|-(3)----3-3-3---3--3--------|


 Chorus
  G        D           A             Bm
  Q  E E   E E E E     +H.                  E E
|--------------------|----------------------------|
|------5---7-5-------|----------------------------|
|-7--7---------7-----|------------------------6---|
|----------------7---|-(7)------------------7-----|
|--------------------|----------------------------|
|--------------------|----------------------------|
|
| Q  E S S Q   E S S    E  +S  S S S E +Q   E S S
|-3--3-x-x-----------|--5--(5)-x-x-x-7-(7)--7-x-x-|
|-3--3-x-x-7---7-x-x-|--5--(5)-x-x-x-7-(7)--7-x-x-|
|-4--4-x-x-7---7-x-x-|--6--(6)-x-x-x-7-(7)--7-x-x-|
|-5--5-x-x-7---7-x-x-|--7--(7)-x-x-x-9-(9)--9-x-x-|
|-5--5-x-x-5---5-x-x-|--7--(7)-x-x-x-9-(9)--9-x-x-|
|-3--3-x-x-----------|--5--(5)-x-x-x-7-(7)--7-x-x-|


  G        D          A
  Q  E E   E  E   E   E   +H.      E E
|-----------------5-----|------------------|
|------5---7--8-------5-|-(5)--------5-----|
|-7--7------------------|------------------|
|-----------------------|----------7-------|
|-----------------------|------------------|
|-----------------------|------------------|
|
| Q  E S S E.   S S S E   +H.      E S S
|-3--3-x-x------------5-|-(5)------5-x-x---|
|-3--3-x-x-7----x-x-x-5-|-(5)------5-x-x---|
|-4--4-x-x-7----x-x-x-6-|-(6)------6-x-x---|
|-5--5-x-x-7----x-x-x-7-|-(7)------7-x-x---|
|-5--5-x-x-5----x-x-x-7-|-(7)------7-x-x---|
|-3--3-x-x------------5-|-(5)------5-x-x---|


  G         D           A             Bm
  Q   E E   E E E E     +H.                  E E
|---------------------|----------------------------|
|-------5---7-5-------|----------------------------|
|-7---7---------7-----|------------------------6---|
|-----------------7---|-(7)------------------7-----|
|---------------------|----------------------------|
|---------------------|----------------------------|
|
| E E E S S E E E S S    E  +S  S S S E +Q   E S S
|-3-3-3-x-x-----------|--5--(5)-x-x-x-7-(7)--7-x-x-|
|-3-3-3-x-x-7-7-7-x-x-|--5--(5)-x-x-x-7-(7)--7-x-x-|
|-4-4-4-x-x-7-7-7-x-x-|--6--(6)-x-x-x-7-(7)--7-x-x-|
|-5-5-5-x-x-7-7-7-x-x-|--7--(7)-x-x-x-9-(9)--9-x-x-|
|-5-5-5-x-x-5-5-5-x-x-|--7--(7)-x-x-x-9-(9)--9-x-x-|
|-3-3-3-x-x-----------|--5--(5)-x-x-x-7-(7)--7-x-x-|


  G         D       A
  Q   E E   E E E    E    +H.            E  E
|---------------5------|-----------------------|
|-------5---7-8------5-|--(5)----------/15-14--|
|-7---7----------------|-----------------------|
|----------------------|-----------------------|
|----------------------|-----------------------|
|----------------------|-----------------------|
|
| E E E S S Q   S S  E    +H      E  E   E  E
|-3-3-3-x-x------------|-----------------------|
|-3-3-3-x-x-7---x-x-14-|-(14)------------------|
|-4-4-4-x-x-7---x-x-14-|-(14)------------------|
|-5-5-5-x-x-7---x-x-14-|-(14)----14-14--12-11--|
|-5-5-5-x-x-5---x-x-12-|-(12)------------------|
|-3-3-3-x-x------------|-----------------------|


   Bridge
    Bm          A                 G                       D
    Gtrs I, II
    E E S S S S E E S S S S   S S S S S S S S S S S S S S E
||--7-7-x-7-x-7-5-5-x-5-x-5-|-x-x-3-x-x-3-x-x-3-x-x-3-x-x-----||
||o-7-7-x-7-x-7-5-5-x-5-x-5-|-x-x-3-x-x-3-x-x-3-x-x-3-x-x-7--o||
||--7-7-x-7-x-7-6-6-x-6-x-6-|-x-x-4-x-x-4-x-x-4-x-x-4-x-x-7---||
||--9-9-x-9-x-9-7-7-x-7-x-7-|-x-x-5-x-x-5-x-x-5-x-x-5-x-x-7---||
||o-9-9-x-9-x-9-7-7-x-7-x-7-|-x-x-5-x-x-5-x-x-5-x-x-5-x-x-5--o||
||--7-7-x-7-x-7-5-5-x-5-x-5-|-x-x-3-x-x-3-x-x-3-x-x-3-x-x-----||


 Guitar Solo
  Bm                A
  Gtr III
  ~~~~~                     ~
                      |-3-|
  Q.          +E    E S S S Q
|-----------------------------------|
|-----------------------------------|
|-9b11========(9)r==9-7-9-7---------|
|---------------------------9-------|
|-----------------------------------|
|-----------------------------------|
|
| Gtr II
| E     E S S  S  S E E     S S S S
|-7-----7-x-7--x--7-5-5-----x-5-x-5-|
|-7-----7-x-7--x--7-5-5-----x-5-x-5-|
|-7-----7-x-7--x--7-6-6-----x-6-x-6-|
|-9-----9-x-9--x--9-7-7-----x-7-x-7-|
|-9-----9-x-9--x--9-7-7-----x-7-x-7-|
|-7-----7-x-7--x--7-5-5-----x-5-x-5-|


          G                                     D
  E   S S Q          S    S    S    S    Q
|-------------------------------------------------|
|-------------------------------------------------|
|-7---7-7-9b11-------9b11-9b11-9b11-9b11-9b11r====|
|-------------------------------------------------|
|-------------------------------------------------|
|-------------------------------------------------|
|
| S S S S S    S S S S    S    S    S    S    S E
|-x-x-3-x-x----3-x-x-3----x----x----3----x----x---|
|-x-x-3-x-x----3-x-x-3----x----x----3----x----x-7-|
|-x-x-4-x-x----4-x-x-4----x----x----4----x----x-7-|
|-x-x-5-x-x----5-x-x-5----x----x----5----x----x-7-|
|-x-x-5-x-x----5-x-x-5----x----x----5----x----x-5-|
|-x-x-3-x-x----3-x-x-3----x----x----3----x----x---|


  Bm              A
   ~~~~~~~~~
   Q      Q        E     E     E       E
|---------7--------7-----7-----7-------7------|
|-10b12-----------10b12-10b12-10b12---10b12---|
|---------------------------------------------|
|---------------------------------------------|
|---------------------------------------------|
|---------------------------------------------|
|
|  E    E S S S S  E     E     S    S  S    S
|--7----7-x-7-x-7--5-----5-----x----5--x----5-|
|--7----7-x-7-x-7--5-----5-----x----5--x----5-|
|--7----7-x-7-x-7--6-----6-----x----6--x----6-|
|--9----9-x-9-x-9--7-----7-----x----7--x----7-|
|--9----9-x-9-x-9--7-----7-----x----7--x----7-|
|--7----7-x-7-x-7--5-----5-----x----5--x----5-|


       G                               D
   ~~                   ~~~~~
   Q        +S  S  S S  H
|-10-------(10)-7-10-7-10b12-------------|
|----------------------------------------|
|----------------------------------------|
|----------------------------------------|
|----------------------------------------|
|----------------------------------------|
|
|  S S S S   S  S  S S  S    S S S S S E
|--x-x-3-x---x--3--x-x--3----x-x-3-x-x---|
|--x-x-3-x---x--3--x-x--3----x-x-3-x-x-7-|
|--x-x-4-x---x--4--x-x--4----x-x-4-x-x-7-|
|--x-x-5-x---x--5--x-x--5----x-x-5-x-x-7-|
|--x-x-5-x---x--5--x-x--5----x-x-5-x-x-5-|
|--x-x-3-x---x--3--x-x--3----x-x-3-x-x---|


  Bm                 A                     G                       D
  S S S S S  S  S  S S S S S S S S S   S S S S H               E   E
|-x-7-7-7----------------------------|--------------------------------|
|---------x-10-10-10-x-7-7-7---------|--------------------------------|
|----------------------------x-9-9-9-|-x-7-7-7---------------------7--|
|------------------------------------|---------9---------------9------|
|------------------------------------|--------------------------------|
|------------------------------------|---------7----------------------|
|
| E   E   S  S  S  S E   E   S S S S   S S S S S S S S S S S S S S E
|-7---7---x--7--x--7-5---5---x-5-x-5-|-x-x-3-x-x-3-x-x-3-x-x-3-x-x----|
|-7---7---x--7--x--7-5---5---x-5-x-5-|-x-x-3-x-x-3-x-x-3-x-x-3-x-x-7--|
|-7---7---x--7--x--7-6---6---x-6-x-6-|-x-x-4-x-x-4-x-x-4-x-x-4-x-x-7--|
|-9---9---x--9--x--9-7---7---x-7-x-7-|-x-x-5-x-x-5-x-x-5-x-x-5-x-x-7--|
|-9---9---x--9--x--9-7---7---x-7-x-7-|-x-x-5-x-x-5-x-x-5-x-x-5-x-x-5--|
|-7---7---x--7--x--7-5---5---x-5-x-5-|-x-x-3-x-x-3-x-x-3-x-x-3-x-x----|


  Bm                 A
  |--3---|
  S    S S Q     E   S S Q.
|-----------------------------------|
|-----------------------------------|
|-9b11r9p7-------7---7-7------------|
|----------9-------------9----------|
|-----------------------------------|
|-----------------------------------|
|
| E        E S S S S E   E  S S S S
|-7--------7-x-7-x-7-5---5--x-5-x-5-|
|-7--------7-x-7-x-7-5---5--x-5-x-5-|
|-7--------7-x-7-x-7-6---6--x-6-x-6-|
|-9--------9-x-9-x-9-7---7--x-7-x-7-|
|-9--------9-x-9-x-9-7---7--x-7-x-7-|
|-7--------7-x-7-x-7-5---5--x-5-x-5-|


  G                                                              D
  |--------6--------| |-----------6------------| |------6------|
  S    S   S  S S   S T    +T  S   S S S       S S S   S S S   S +Q
|----------7---------------------------------------------------------------|
|------7-----10p7----------------------------------------------------------|
|-9b11--------------9-9b11r(9)p7-----9-7b7.5-------------------------------|
|----------------------------------9-----------9-7-------------------------|
|--------------------------------------------------9---8-7-5---------------|
|--------------------------------------------------------------7-(7)-------|
|
| S      S    S   S   S          S   S       S   S   S   S   S    S  S E
|-x------x----3---x---x----------3---x-------x---3---x---x---3----x--x-----|
|-x------x----3---x---x----------3---x-------x---3---x---x---3----x--x-7---|
|-x------x----4---x---x----------4---x-------x---4---x---x---4----x--x-7---|
|-x------x----5---x---x----------5---x-------x---5---x---x---5----x--x-7---|
|-x------x----5---x---x----------5---x-------x---5---x---x---5----x--x-5---|
|-x------x----3---x---x----------3---x-------x---3---x---x---3----x--x-----|


  Bm                                  A
  |------6------| |--------6--------| |------6------| |--------6--------|
  S    S S  S S S S    S   S  S S   S S    S S  S S S S    S   S  S S   S
|--------7-----------------7-----------------7-----------------7----------|
|------7---10p7--------7-----10p7----------7---10p7--------7-----10p7-----|
|-9b11----------9-9b11--------------9-9b11----------9-9b11--------------9-|
|-------------------------------------------------------------------------|
|-------------------------------------------------------------------------|
|-------------------------------------------------------------------------|
|
| E         E     S      S    S   S   E         E     S      S    S   S
|-7---------7-----x------7----x---7---5---------5-----x------5----x---5---|
|-7---------7-----x------7----x---7---5---------5-----x------5----x---5---|
|-7---------7-----x------7----x---7---6---------6-----x------6----x---6---|
|-9---------9-----x------9----x---9---7---------7-----x------7----x---7---|
|-9---------9-----x------9----x---9---7---------7-----x------7----x---7---|
|-7---------7-----x------7----x---7---5---------5-----x------5----x---5---|


             G                                                           D
  |--------6--------| |--------6--------| |--------6--------| |-------6-------|
  S    S   S  S S   S S    S   S  S S   S S    S   S  S S   S S    S   S  S S S
|----------7-------------------7-------------------7-------------------7-----------|
|------7-----10p7----------7-----10p7----------7-----10p7----------7-----10p7------|
|-9b11--------------9-9b11--------------9-9b11--------------9-9b11------------9----|
|----------------------------------------------------------------------------------|
|----------------------------------------------------------------------------------|
|----------------------------------------------------------------------------------|
|
| S      S    S   S   S      S    S   S   S      S    S   S   S      S    E
|-x------x----3---x---x------3----x---x---3------x----x---3---x------x-------------|
|-x------x----3---x---x------3----x---x---3------x----x---3---x------x----7--------|
|-x------x----4---x---x------4----x---x---4------x----x---4---x------x----7--------|
|-x------x----5---x---x------5----x---x---5------x----x---5---x------x----7--------|
|-x------x----5---x---x------5----x---x---5------x----x---5---x------x----5--------|
|-x------x----3---x---x------3----x---x---3------x----x---3---x------x-------------|


  Bm                              A
   |-3-|  |-3-|  |--3--|  |--3--|  |-3-|  |-3-|  |--3--|  |--3--|
   S S S  S S S  S S   S  S S   S  S S S  S S S  S S   S  S S   S
|-10p7---10p7---10p7-----10p7-----10p7---10p7---10p7-----10p7-----|
|------7------7--------7--------7------7------7--------7--------7-|
|-----------------------------------------------------------------|
|-----------------------------------------------------------------|
|-----------------------------------------------------------------|
|-----------------------------------------------------------------|
|
|  E      E      S   S    S   S    E      E      S   S    S   S
|--7------7------x---7----x---7----5------5------x---5----x---5---|
|--7------7------x---7----x---7----5------5------x---5----x---5---|
|--7------7------x---7----x---7----6------6------x---6----x---6---|
|--9------9------x---9----x---9----7------7------x---7----x---7---|
|--9------9------x---9----x---9----7------7------x---7----x---7---|
|--7------7------x---7----x---7----5------5------x---5----x---5---|


       G                          D
   TP       TP       TP       TP
   Q        Q        Q        Q
|-12-------14-------17-------19-------|
|-------------------------------------|
|-------------------------------------|
|-------------------------------------|
|-------------------------------------|
|-------------------------------------|
|
|  S S S S  S S S S  S S S S  S S E
|--x-x-3-x--x-3-x-x--3-x-x-3--x-x-----|
|--x-x-3-x--x-3-x-x--3-x-x-3--x-x-7---|
|--x-x-4-x--x-4-x-x--4-x-x-4--x-x-7---|
|--x-x-5-x--x-5-x-x--5-x-x-5--x-x-7---|
|--x-x-5-x--x-5-x-x--5-x-x-5--x-x-5---|
|--x-x-3-x--x-3-x-x--3-x-x-3--x-x-----|


  Bm                    A
                               ~~~~~~~~~~~~~~~
   E  E     E    E       S  S  Q.
|-19-------19-----------19-19-22b24==========|
|----22b24------22b24------------------------|
|--------------------------------------------|
|--------------------------------------------|
|--------------------------------------------|
|--------------------------------------------|
|
|  E  E     S S  S    S  E     E     S S S S
|--7--7-----x-7--x----7--5-----5-----x-5-x-5-|
|--7--7-----x-7--x----7--5-----5-----x-5-x-5-|
|--7--7-----x-7--x----7--6-----6-----x-6-x-6-|
|--9--9-----x-9--x----9--7-----7-----x-7-x-7-|
|--9--9-----x-9--x----9--7-----7-----x-7-x-7-|
|--7--7-----x-7--x----7--5-----5-----x-5-x-5-|


          G                         D
 ~~~~~~~
   +H.                         S  S  S  S
|-(22)r-----------------------22p19-------|
|-----------------------------------22p19-|
|-----------------------------------------|
|-----------------------------------------|
|-----------------------------------------|
|-----------------------------------------|
|
|   S   S S S S S S S S S S S  S  S  E
|---x---x-3-x-x-3-x-x-3-x-x-3--x--x-------|
|---x---x-3-x-x-3-x-x-3-x-x-3--x--x--7----|
|---x---x-4-x-x-4-x-x-4-x-x-4--x--x--7----|
|---x---x-5-x-x-5-x-x-5-x-x-5--x--x--7----|
|---x---x-5-x-x-5-x-x-5-x-x-5--x--x--5----|
|---x---x-3-x-x-3-x-x-3-x-x-3--x--x-------|


  Bm                      A
   S  S  S  S  S  S  S  S  S  S  S  S a a a  Q
|-------------------------------------------19-------|
|-----------------------------------------x----------|
|-21p19-21p19---------------------------x------------|
|-------------21p19-21p19-------------x--------------|
|-------------------------21p19-21p19----------------|
|----------------------------------------------------|
|
|  E     E     S  S  S  S  E     E           S S S S
|--7-----7-----x--7--x--7--5-----5-----------x-5-x-5-|
|--7-----7-----x--7--x--7--5-----5-----------x-5-x-5-|
|--7-----7-----x--7--x--7--6-----6-----------x-6-x-6-|
|--9-----9-----x--9--x--9--7-----7-----------x-7-x-7-|
|--9-----9-----x--9--x--9--7-----7-----------x-7-x-7-|
|--7-----7-----x--7--x--7--5-----5-----------x-5-x-5-|


       G                         D
   E   H               +E    E   E
|-----------------------------------|
|-----------------------------------|
|-----------------------------------|
|----------------------------9---7--|
|-----------------------------------|
|-19S==7---------------(7)----------|
|
|  S S S S S S S S S S  S  S S S E
|--x-x-3-x-x-3-x-x-3-x--x--3-x-x----|
|--x-x-3-x-x-3-x-x-3-x--x--3-x-x-7--|
|--x-x-4-x-x-4-x-x-4-x--x--4-x-x-7--|
|--x-x-5-x-x-5-x-x-5-x--x--5-x-x-7--|
|--x-x-5-x-x-5-x-x-5-x--x--5-x-x-5--|
|--x-x-3-x-x-3-x-x-3-x--x--3-x-x----|


  Bm             A                    G                       D
  E E   Q        E E   Q          E   S E   S E   S E   S S S E
|-------------------------------|-------------------------------|
|-------------------------------|-------------------------------|
|-------------------------------|-------------------------------|
|-------------------------------|---------------------------x-7-|
|-9-9------------7-7------------|-----5-----5-----5-----5---x-5-|
|-7-7-/19\-------5-5-/17\-------|-----3-----3-----3-----3-------|
|
| E E   S  S S S E E   S  S S S   S S S S S S S S S S S S S S E
|-7-7---x--7-x-7-5-5---x--5-x-5-|-x-x-3-x-x-3-x-x-3-x-x-3-x-x---|
|-7-7---x--7-x-7-5-5---x--5-x-5-|-x-x-3-x-x-3-x-x-3-x-x-3-x-x-7-|
|-7-7---x--7-x-7-6-6---x--6-x-6-|-x-x-4-x-x-4-x-x-4-x-x-4-x-x-7-|
|-9-9---x--9-x-9-7-7---x--7-x-7-|-x-x-5-x-x-5-x-x-5-x-x-5-x-x-7-|
|-9-9---x--9-x-9-7-7---x--7-x-7-|-x-x-5-x-x-5-x-x-5-x-x-5-x-x-5-|
|-7-7---x--7-x-7-5-5---x--5-x-5-|-x-x-3-x-x-3-x-x-3-x-x-3-x-x---|


  Bm             A                    G                       D
  E E   Q        E E   Q          E   S E   S E   S E   S S S E
|-------------------------------|-------------------------------|
|-------------------------------|-------------------------------|
|-------------------------------|-------------------------------|
|-------------------------------|---------------------------x-7-|
|-9-9------------7-7------------|-----5-----5-----5-----5---x-5-|
|-7-7-/19\-------5-5-/17\-------|-----3-----3-----3-----3-------|
|
| E E   S  S S S E E   S  S S S   S S S S S S S S S S S S S S E
|-7-7---x--7-x-7-5-5---x--5-x-5-|-x-x-3-x-x-3-x-x-3-x-x-3-x-x---|
|-7-7---x--7-x-7-5-5---x--5-x-5-|-x-x-3-x-x-3-x-x-3-x-x-3-x-x-7-|
|-7-7---x--7-x-7-6-6---x--6-x-6-|-x-x-4-x-x-4-x-x-4-x-x-4-x-x-7-|
|-9-9---x--9-x-9-7-7---x--7-x-7-|-x-x-5-x-x-5-x-x-5-x-x-5-x-x-7-|
|-9-9---x--9-x-9-7-7---x--7-x-7-|-x-x-5-x-x-5-x-x-5-x-x-5-x-x-5-|
|-7-7---x--7-x-7-5-5---x--5-x-5-|-x-x-3-x-x-3-x-x-3-x-x-3-x-x---|


  Bm             A                    G                       D
  E E   Q        E E   Q          E   S E   S E   S E   S S S E
|-------------------------------|-------------------------------|
|-------------------------------|-------------------------------|
|-------------------------------|-------------------------------|
|-------------------------------|---------------------------x-7-|
|-9-9------------7-7------------|-----5-----5-----5-----5---x-5-|
|-7-7-/19\-------5-5-/17\-------|-----3-----3-----3-----3-------|
|
| E E   S  S S S E E   S  S S S   S S S S S S S S S S S S S S E
|-7-7---x--7-x-7-5-5---x--5-x-5-|-x-x-3-x-x-3-x-x-3-x-x-3-x-x---|
|-7-7---x--7-x-7-5-5---x--5-x-5-|-x-x-3-x-x-3-x-x-3-x-x-3-x-x-7-|
|-7-7---x--7-x-7-6-6---x--6-x-6-|-x-x-4-x-x-4-x-x-4-x-x-4-x-x-7-|
|-9-9---x--9-x-9-7-7---x--7-x-7-|-x-x-5-x-x-5-x-x-5-x-x-5-x-x-7-|
|-9-9---x--9-x-9-7-7---x--7-x-7-|-x-x-5-x-x-5-x-x-5-x-x-5-x-x-5-|
|-7-7---x--7-x-7-5-5---x--5-x-5-|-x-x-3-x-x-3-x-x-3-x-x-3-x-x---|


  Bm                                   G                          D
  E E   Q        E E   Q           H                E    E    E    E
|-------------------------------|------------------------------------|
|-------------------------------|------------------------------------|
|-------------------------------|-12---------------12---12---12---12-|
|-------------------------------|-12---------------12---12---12---12-|
|-9-9------------7-7------------|-10---------------10---10---10---10-|
|-7-7-/19\-------5-5-/17\-------|------------------------------------|
|
| E E   S  S S S E E   S  S S S    S S S S S S S S  S S  S S  S S  E
|-7-7---x--7-x-7-5-5---x--5-x-5-|--x-x-3-x-x-3-x-x--3-x--x-3--x-x----|
|-7-7---x--7-x-7-5-5---x--5-x-5-|--x-x-3-x-x-3-x-x--3-x--x-3--x-x--7-|
|-7-7---x--7-x-7-6-6---x--6-x-6-|--x-x-4-x-x-4-x-x--4-x--x-4--x-x--7-|
|-9-9---x--9-x-9-7-7---x--7-x-7-|--x-x-5-x-x-5-x-x--5-x--x-5--x-x--7-|
|-9-9---x--9-x-9-7-7---x--7-x-7-|--x-x-5-x-x-5-x-x--5-x--x-5--x-x--5-|
|-7-7---x--7-x-7-5-5---x--5-x-5-|--x-x-3-x-x-3-x-x--3-x--x-3--x-x----|


 Chorus
  G        D           A             Bm
  Gtr I
  Q  E E   E E E E     +H.                  E E
|--------------------|----------------------------|
|------5---7-5-------|----------------------------|
|-7--7---------7-----|------------------------6---|
|----------------7---|-(7)------------------7-----|
|--------------------|----------------------------|
|--------------------|----------------------------|
|
| Q  E S S Q   E S S    E  +S  S S S E +Q   E S S
|-3--3-x-x-----------|--5--(5)-x-x-x-7-(7)--7-x-x-|
|-3--3-x-x-7---7-x-x-|--5--(5)-x-x-x-7-(7)--7-x-x-|
|-4--4-x-x-7---7-x-x-|--6--(6)-x-x-x-7-(7)--7-x-x-|
|-5--5-x-x-7---7-x-x-|--7--(7)-x-x-x-9-(9)--9-x-x-|
|-5--5-x-x-5---5-x-x-|--7--(7)-x-x-x-9-(9)--9-x-x-|
|-3--3-x-x-----------|--5--(5)-x-x-x-7-(7)--7-x-x-|


  G        D          A
  Q  E E   E  E   E   E   +H.      E E
|-----------------5-----|------------------|
|------5---7--8-------5-|-(5)--------5-----|
|-7--7------------------|------------------|
|-----------------------|----------7-------|
|-----------------------|------------------|
|-----------------------|------------------|
|
| Q  E S S E.   S S S E   +H.      E S S
|-3--3-x-x------------5-|-(5)------5-x-x---|
|-3--3-x-x-7----x-x-x-5-|-(5)------5-x-x---|
|-4--4-x-x-7----x-x-x-6-|-(6)------6-x-x---|
|-5--5-x-x-7----x-x-x-7-|-(7)------7-x-x---|
|-5--5-x-x-5----x-x-x-7-|-(7)------7-x-x---|
|-3--3-x-x------------5-|-(5)------5-x-x---|


  G         D           A             Bm
  Q   E E   E E E E     +H.                  E E
|---------------------|----------------------------|
|-------5---7-5-------|----------------------------|
|-7---7---------7-----|------------------------6---|
|-----------------7---|-(7)------------------7-----|
|---------------------|----------------------------|
|---------------------|----------------------------|
|
| E E E S S E E E S S    E  +S  S S S E +Q   E S S
|-3-3-3-x-x-----------|--5--(5)-x-x-x-7-(7)--7-x-x-|
|-3-3-3-x-x-7-7-7-x-x-|--5--(5)-x-x-x-7-(7)--7-x-x-|
|-4-4-4-x-x-7-7-7-x-x-|--6--(6)-x-x-x-7-(7)--7-x-x-|
|-5-5-5-x-x-7-7-7-x-x-|--7--(7)-x-x-x-9-(9)--9-x-x-|
|-5-5-5-x-x-5-5-5-x-x-|--7--(7)-x-x-x-9-(9)--9-x-x-|
|-3-3-3-x-x-----------|--5--(5)-x-x-x-7-(7)--7-x-x-|


  G         D       A
  Q   E E   E E E    E    +H.            E  E
|---------------5------|-----------------------|
|-------5---7-8------5-|--(5)----------/15-14--|
|-7---7----------------|-----------------------|
|----------------------|-----------------------|
|----------------------|-----------------------|
|----------------------|-----------------------|
|
| E E E S S Q   S S  E    +H      E  E   E  E
|-3-3-3-x-x------------|-----------------------|
|-3-3-3-x-x-7---x-x-14-|-(14)------------------|
|-4-4-4-x-x-7---x-x-14-|-(14)------------------|
|-5-5-5-x-x-7---x-x-14-|-(14)----14-14--12-11--|
|-5-5-5-x-x-5---x-x-12-|-(12)------------------|
|-3-3-3-x-x------------|-----------------------|


   Outro
    Bm        A        G
    Q   E S E   S E  E E    E  E  E S E S E  E  E
||-----------------------|------------------------|
||o----------------------|------------------------|
||-----11-----------11---|-------12---------12-14-|
||--0-----0-0---0-0----0-|--0--0----0-0-0-0-------|
||o----------------------|------------------------|
||-----------------------|------------------------|
|
|   Q   E S S Q      E E   +W
||--7---x-x-x-5------x-3-|-(3)--------------------|
||o-7---x-x-x-5------x-3-|-(3)--------------------|
||--7---x-x-x-6------x-4-|-(4)--------------------|
||--9---x-x-x-7------x-5-|-(5)--------------------|
||o-9---x-x-x-7------x-5-|-(5)--------------------|
||--7---x-x-x-5------x-3-|-(3)--------------------|


  Bm         A        G                      G  A
                                                 |--3--|
  E E  E S E   S E  E S S    E  E  E S E S E  E  S  S  S
|-------------------------|--------------------------------||
|-------------------------|-------------------------------o||
|-----11-----------11-----|-------12---------12-11h12p11---||
|-0-0----0-0---0-0----0-0-|--0--0----0-0-0-0---------------||
|-------------------------|-------------------------------o||
|-------------------------|--------------------------------||
|
| Q    E S S Q      E E     +H.               E  E
|-7----x-x-x-5------x-3---|-(3)---------------3--5---------||
|-7----x-x-x-5------x-3---|-(3)---------------3--5--------o||
|-7----x-x-x-6------x-4---|-(4)---------------4--6---------||
|-9----x-x-x-7------x-5---|-(5)---------------5--7---------||
|-9----x-x-x-7------x-5---|-(5)---------------5--7--------o||
|-7----x-x-x-5------x-3---|-(3)---------------3--5---------||


  Bm        A         G
  Q   E S E    S E  E E    E  E  E S E S E  E  E
|-----------------------|------------------------|
|-----------------------|------------------------|
|----11------------11---|-------12---------12-14-|
|-0-----0-0----0-0----0-|--0--0----0-0-0-0-------|
|-----------------------|------------------------|
|-----------------------|------------------------|
|
| H         Q.        E   +W
|-7---------5---------3-|-(3)--------------------|
|-7---------5---------3-|-(3)--------------------|
|-7---------6---------4-|-(4)--------------------|
|-9---------7---------5-|-(5)--------------------|
|-9---------7---------5-|-(5)--------------------|
|-7---------5---------3-|-(3)--------------------|


  Bm         A         G
                                                  |--3--|
  E E  E S E    S E  E S S    E  E  E S E S E  E  S  S  S
|--------------------------|--------------------------------|
|--------------------------|--------------------------------|
|-----11------------11-----|-------12---------12-11h12p11---|
|-0-0----0-0----0-0----0-0-|--0--0----0-0-0-0---------------|
|--------------------------|--------------------------------|
|--------------------------|--------------------------------|
|
| H          Q.        E     +W
|-7----------5---------3---|-(3)----------------------------|
|-7----------5---------3---|-(3)----------------------------|
|-7----------6---------4---|-(4)----------------------------|
|-9----------7---------5---|-(5)----------------------------|
|-9----------7---------5---|-(5)----------------------------|
|-7----------5---------3---|-(3)----------------------------|


  Bm        A         G
  Q   E S E    S E  E E    E  E  E S E S E  E  E
|-----------------------|------------------------|
|-----------------------|------------------------|
|----11------------11---|-------12---------12-14-|
|-0-----0-0----0-0----0-|--0--0----0-0-0-0-------|
|-----------------------|------------------------|
|-----------------------|------------------------|
|
| H         Q.        E   +W
|-7---------5---------3-|-(3)--------------------|
|-7---------5---------3-|-(3)--------------------|
|-7---------6---------4-|-(4)--------------------|
|-9---------7---------5-|-(5)--------------------|
|-9---------7---------5-|-(5)--------------------|
|-7---------5---------3-|-(3)--------------------|


                          H.=H
  N.C.                                                 D
                                             |--3--|
  E E  E S E S E  E S S   E E  E S E S E  E  S  S  S     W
|-----------------------|----------------------------|-^14----*|
|-----------------------|----------------------------|-^15----*|
|-----11---------11-----|-----12---------12-11h12p11-|-^14----*|
|-0-0----0-0-0-0----0-0-|-0-0----0-0-0-0-------------|-^-0----*|
|-----------------------|----------------------------|--------*|
|-----------------------|----------------------------|--------*|
|
| W                       W                              W
|-----------------------|----------------------------|-^-2----*|
|-----------------------|----------------------------|-^-3----*|
|-----------------------|----------------------------|-^-2----*|
|-----------------------|----------------------------|-^-0----*|
|-----------------------|----------------------------|--------*|
|-----------------------|----------------------------|--------*|


Duration Legend
---------------
W - whole; H - half; Q - quarter; E - 8th; S - 16th; T - 32nd; X - 64th; a - acciaccatura
+ - note tied to previous; . - note dotted; .. - note double dotted
Uncapitalized letters represent notes that are staccato (1/2 duration)
Irregular groupings are notated above the duration line
Duration letters will always appear directly above the note/fret number it represents the
duration for.  Duration letters with no fret number below them represent rests.  Multi-
bar rests are notated in the form Wxn, where n is the number of bars to rest for.  Low
melody durations appear below the staff

Tablature Legend
----------------
 h   - hammer-on
 p   - pull-off
 b   - bend
 pb  - pre-bend
 r   - bend release (if no number after the r, then release immediately)
 /\  - slide into or out of (from/to "nowhere")
 s   - legato slide
 S   - shift slide
  - natural harmonic
[n]  - artificial harmonic
n(n) - tapped harmonic
 ~   - vibrato
 tr  - trill
 T   - tap
 TP  - trem. picking
 PM  - palm muting
\n/  - tremolo bar dip; n = amount to dip
 \n  - tremolo bar down
 n/  - tremolo bar up
/n\  - tremolo bar inverted dip
 =   - hold bend; also acts as connecting device for hammers/pulls
 <>  - volume swell (louder/softer)
 x   - on rhythm slash represents muted slash
 o   - on rhythm slash represents single note slash

Misc Legend
-----------
 |  - bar
||  - double bar
||o - repeat start
o|| - repeat end
*|  - double bar (ending)
 :  - bar (freetime)
 $  - Segno
 &  - Coda
Tempo markers -  = BPM(8/16=s8/s16), where s8 = swing 8ths, s16 = swing 16ths


***************************************************************************************
***************************************************************************************





Comments


Popular Quinn Peck tabs & chords
And Life Goes On Bass Tabs
Going Down Bass Tabs
Motorized Miracles Forever Bass Tabs
What I Could Have Said Bass Tabs
Wonderful Week Bass Tabs
As She Smiles Tabs
Buy Yourself Tabs
For You Tabs
Half Way Around Tabs
The Girl I Love Tabs


Song lyrics



↑ Back to top | Tablatures and chords are parodies/interpretations of the original songs. You may use it for private study, scholarship, research or language learning purposes only
© 2014 AZChords.com Contact us | Privacy policy | DMCA | Add/correct tabs | Request tabs | Top 50 tabs