» » »

Quinn Peck, Going Down Bass tabs (ver.1)

Artists:  A B C D E F G H I J K L M N O P Q R S T U V W X Y Z # 

Going Down Bass tabs (ver.1)

Quinn Peck Tabs
Rating:
0/5 (0 votes)
Going Down lessons Tabs too difficult? Try these video lessons and learn fast
                #------------------------------------------------------------------------------##

                              GOING DOWN (Bassline)
                            As recorded by Quinn Peck

Music by Quinn Peck

Gtr I (E A D G) - 'Untitled'

 Intro
  Q=100
 4/4
                     Gtr I
                                                                |-3-|
  W          H.      E E   Q  E S E S E E S S   E E E S E S E E S S S
|----------|-------------|--------------------|-------------------------|
|----------|-------------|----4---------4-----|-----5---------5-4-5-4---|
|----------|-----------4-|-5----5-5-5-5---5-5-|-5-5---5-5-5-5-----------|
|----------|---------5---|--------------------|-------------------------|


  Q  E S E S E E S S   E E E S E S E E E
|--------------------|-------------------|
|----4---------4-----|-----5---------5S7-|
|-5----5-5-5-5---5-5-|-5-5---5-5-5-5-----|
|--------------------|-------------------|


                                        |-3-|
  E E E S E S E E S S   E E E S E S E E S S S
|---------------------|-----------------------|
|-----4---------4-----|-----5---------5-4-5-4-|
|-5-5---5-5-5-5---5-5-|-5-5---5-5-5-5---------|
|---------------------|-----------------------|


   Verse 1
                                                            |-3-|
    Q  Q  Q  E E   +H.      E E   Q  Q  Q  E E   +H.      E S S S  4x
||---------------|--------------|--------------|-------------------||
||o----x-----x---|----------5S7-|----x-----x---|----------5-4-5-4-o||
||o----x-----x---|--------------|----x-----x---|------------------o||
||--7--x--5--x-3-|-(3)----------|-7--x--5--x-3-|-(3)---------------||


 Chorus
  E E E E E E E E   E E E Q  E Q    E E E E E E E E   +H.      E E
|-------------7---|---------------|-------------7---|---------------|
|-----5-----7---7-|-----7------9--|-----5-----7-----|----------7----|
|---5---5-5-------|---7------9----|---5---5-5-------|------------7--|
|-3---------------|-5-----7-------|-3-------------5-|-(5)-----------|


  E E E E E E E E   E E E Q  E Q    E E E E E E E E   +H     E E E E
|-------------7---|---------------|-------------7---|-----------------|
|-----5-----7---7-|-----7------9--|-----5-----7-----|-----------------|
|---5---5-5-------|---7------9----|---5---5-5-------|--------7-7-5-4--|
|-3---------------|-5-----7-------|-3-------------5-|-(5)-------------|


   Verse 2
                                                            |-3-|
    Q  Q  Q  E E   +H.      E E   Q  Q  Q  E E   +H.      E S S S  4x
||---------------|--------------|--------------|-------------------||
||o----x-----x---|----------5S7-|----x-----x---|----------5-4-5-4-o||
||o----x-----x---|--------------|----x-----x---|------------------o||
||--7--x--5--x-3-|-(3)----------|-7--x--5--x-3-|-(3)---------------||


 Chorus
  E E E E E E E E   E E E Q  E Q    E E E E E E E E   +H.      E E
|-------------7---|---------------|-------------7---|---------------|
|-----5-----7---7-|-----7------9--|-----5-----7-----|----------7----|
|---5---5-5-------|---7------9----|---5---5-5-------|------------7--|
|-3---------------|-5-----7-------|-3-------------5-|-(5)-----------|


  E E E E E E E E   E E E Q  E Q    E E E E E E E E   +H     E E E E
|-------------7---|---------------|-------------7---|-----------------|
|-----5-----7---7-|-----7------9--|-----5-----7-----|-----------------|
|---5---5-5-------|---7------9----|---5---5-5-------|--------7-7-5-4--|
|-3---------------|-5-----7-------|-3-------------5-|-(5)-------------|


   Bridge
    E E S S S S E E S S S S   E S E S E S E S E E
||--------------------------|----------------------||
||o-------------------------|---------------------o||
||o-------------------------|-------------------5-o||
||--7-7---7---7-5-5---5---5-|---3---3---3---3------||


   Guitar Solo
    E E S S S S E E S S S S   E S E S E S E S E E 13x
||--------------------------|----------------------||
||o-------------------------|---------------------o||
||o-------------------------|-------------------5-o||
||--7-7---7---7-5-5---5---5-|---3---3---3---3------||


 Chorus
  E E E E E E E E   E E E Q  E Q    E E E E E E E E   +H.      E E
|-------------7---|---------------|-------------7---|---------------|
|-----5-----7---7-|-----7------9--|-----5-----7-----|----------7----|
|---5---5-5-------|---7------9----|---5---5-5-------|------------7--|
|-3---------------|-5-----7-------|-3-------------5-|-(5)-----------|


  E E E E E E E E   E E E Q  E Q    E E E E E E E E   +H     E E E E
|-------------7---|---------------|-------------7---|-----------------|
|-----5-----7---7-|-----7------9--|-----5-----7-----|-----------------|
|---5---5-5-------|---7------9----|---5---5-5-------|--------7-7-5-4--|
|-3---------------|-5-----7-------|-3-------------5-|-(5)-------------|


   Outro
                                                            |-3-|
    Q  Q  Q  E E   +H.      E E   Q  Q  Q  E E   +H.      E S S S
||---------------|--------------|--------------|-------------------||
||o----x-----x---|----------5S7-|----x-----x---|----------5-4-5-4-o||
||o----x-----x---|--------------|----x-----x---|------------------o||
||--7--x--5--x-3-|-(3)----------|-7--x--5--x-3-|-(3)---------------||


                                                              |-3-|
  Q  E Q.   E E   Q  E Q.   E E   Q  E Q.   E E   Q  E Q.   E S S S
|---------------|---------------|---------------|--------------------|
|----4------4---|----5------5S7-|----4------4---|----5------5-4-5-4--|
|-5----5------5-|-5----5--------|-5----5------5-|-5----5-------------|
|---------------|---------------|---------------|--------------------|


                                                  H.=H
                                                              |-3-|
  Q  E Q.   E E   Q  E Q.   E E   Q  E Q.   E E   Q  E Q.   E S S S   W
|---------------|---------------|---------------|-------------------|------*|
|----4------4---|----5------5S7-|----4------4---|----5------5-4-5-4-|-0----*|
|-5----5------5-|-5----5--------|-5----5------5-|-5----5------------|------*|
|---------------|---------------|---------------|-------------------|------*|


Duration Legend
---------------
W - whole; H - half; Q - quarter; E - 8th; S - 16th; T - 32nd; X - 64th; a - acciaccatura
+ - note tied to previous; . - note dotted; .. - note double dotted
Uncapitalized letters represent notes that are staccato (1/2 duration)
Irregular groupings are notated above the duration line
Duration letters will always appear directly above the note/fret number it represents the
duration for.  Duration letters with no fret number below them represent rests.  Multi-
bar rests are notated in the form Wxn, where n is the number of bars to rest for.  Low
melody durations appear below the staff

Tablature Legend
----------------
 h   - hammer-on
 p   - pull-off
 b   - bend
 pb  - pre-bend
 r   - bend release (if no number after the r, then release immediately)
 /\  - slide into or out of (from/to "nowhere")
 s   - legato slide
 S   - shift slide
  - natural harmonic
[n]  - artificial harmonic
n(n) - tapped harmonic
 ~   - vibrato
 tr  - trill
 T   - tap
 TP  - trem. picking
 PM  - palm muting
\n/  - tremolo bar dip; n = amount to dip
 \n  - tremolo bar down
 n/  - tremolo bar up
/n\  - tremolo bar inverted dip
 =   - hold bend; also acts as connecting device for hammers/pulls
 <>  - volume swell (louder/softer)
 x   - on rhythm slash represents muted slash
 o   - on rhythm slash represents single note slash

Misc Legend
-----------
 |  - bar
||  - double bar
||o - repeat start
o|| - repeat end
*|  - double bar (ending)
 :  - bar (freetime)
 $  - Segno
 &  - Coda
Tempo markers -  = BPM(8/16=s8/s16), where s8 = swing 8ths, s16 = swing 16ths


***************************************************************************************
***************************************************************************************
            
Submit corrections

comments powered by Disqus
↑ Back to top | Quinn Peck Bass for Going Down. Lyrics for acoustic guitar and electric guitar. Tablatures and chords are parodies/interpretations of the original songs. You may use it for private study, scholarship, research or language learning purposes only