>
 >
For You

For You Guitar Tabs

Quinn Peck - For You chords, tabs, tablatures, lyrics

Guitar lessons | Add/correct | Request | Top 50 tabs Artists:  A B C D E F G H I J K L M N O P Q R S T U V W X Y Z 0-9

For You Guitar Tabs – Quinn Peck

CD, Sheet music, Poster

Do you like For You? Share with your friends now
Tabs
#------------------------------------------------------------------------------##

                                     FOR YOU
                            As recorded by Quinn Peck

Music by Quinn Peck
Arranged by guitarist5240

Gtr I (E A D G B E) - 'Untitled'
Gtr II (E A D G B E) - 'Untitled'
Gtr III (E A D G B E) - 'Untitled'
Gtr IV (E A D G B E) - 'Untitled'
Gtr V (E A D G B E) - 'Untitled'
Gtr VI (E A D G B E) - 'Untitled'

 Intro
  Q=100
  D/B          A7        G
 4/4
  Gtr I
  E E E. S S S E E S S   E E E S S S S E E S S
|-----2--2-------------|-----3-3-3-------3-3-3-|
|-----3--3-------2---2-|-----3-3-3-------3-3-3-|
|-----2--2-x-x---0-0-0-|-----0---0-----------0-|
|---4------x-x-2-2-2-2-|-----0-----x-0---0-0---|
|-2--------x---0-------|-2---------x-x---2-2---|
|----------------------|-3-3---------x-3-------|


  D/B           A7        G           Em
  Gtrs I, IV
  E E E S S S S E E S S   E E E S S S S E E S S
|-----2-2-2-------------|-----3-3-3-------------|
|-----3-3-3-------2---2-|-----3-3-3-x-0---0-0-0-|
|-----2---2-x-x---0-0-0-|-----0---0-x-0---0-0-0-|
|---4-------x-x-2-2-2-2-|-----0-----x-2---2-2-2-|
|-2---------x---0-------|-2---------------2-2---|
|-----------------------|-3-3-----------0-------|


  D/B          A7        G
  Gtrs I, IV, V
  E E E. S S S E E S S   E E E S S S S E E S S
|-----2--2-------------|-----3-3-3-------3-3-3-|
|-----3--3-------2---2-|-----3-3-3-------3-3-3-|
|-----2--2-x-x---0-0-0-|-----0---0-----------0-|
|---4------x-x-2-2-2-2-|-----0-----x-0---0-0---|
|-2--------x---0-------|-2---------x-x---2-2---|
|----------------------|-3-3---------x-3-------|


  D/B           A7        G           Em
  E E E S S S S E E S S   E E E S S S S E E S S
|-----2-2-2-------------|-----3-3-3-------------|
|-----3-3-3-------2---2-|-----3-3-3-x-0---0-0-0-|
|-----2---2-x-x---0-0-0-|-----0---0-x-0---0-0-0-|
|---4-------x-x-2-2-2-2-|-----0-----x-2---2-2-2-|
|-2---------x---0-------|-2---------------2-2---|
|-----------------------|-3-3-----------0-------|


   Verse
    D/B             A7        G
     E  E E S S S S E E S S    E  E E S S S S E  E S S
||--------2-2-2-------------|-------3-3-3--------3-3-3-|
||o-------3-3-3-------2---2-|-------3-3-3--------3-3-3-|
||--------2---2-x-x---0-0-0-|-------0---0------------0-|
||------4-------x-x-2-2-2-2-|-------0-----x-0----0-0---|
||o--2----------x---0-------|--2----------x-x----2-2---|
||--------------------------|--3--3---------x-3--------|
|
|   Gtr II
|    H.               E E     +E  Q   Q       E  E E
||--------------------------|--------------------------|
||o-------------------------|--------------------------|
||--------------------7-6---|-(6)----------------------|
||--/9----------------7-7---|-(7)-7--------------------|
||o-------------------------|---------9-------7----7---|
||--------------------------|-------------------10-----|


  D/B            A7         G                 Em
   E E E S S S S  E E S S   E E    E   S  S S S  E   E    S S
|------2-2-2--------------|--------3---3--3-------------------|
|------3-3-3--------2---2-|--------3---3--3-x-0------0----0-0-|
|------2---2-x-x----0-0-0-|--------0------0-x-0------0----0-0-|
|----4-------x-x--2-2-2-2-|--------0--------x-2------2----2-2-|
|--2---------x----0-------|-2------------------------2----2---|
|-------------------------|-3-3------------------0------------|
|
|  H         E    E E E     E S S  S S S  S S S  S S S  S S S
|-------------------------|-----------------------------------|
|----------------10-------|-------10-----10-----10-----10-----|
|------------x----x-x-6---|---6-7----6-7----6-7----6-7----6-7-|
|-/9---------x----7-x-7---|-----------------------------------|
|-------------------------|-----------------------------------|
|-------------------------|-----------------------------------|


  D/B             A7        G
   E  E E S S S S E E S S    E  E E S S S S E  E S S
|-------2-2-2-------------|-------3-3-3--------3-3-3-|
|-------3-3-3-------2---2-|-------3-3-3--------3-3-3-|
|-------2---2-x-x---0-0-0-|-------0---0------------0-|
|-----4-------x-x-2-2-2-2-|-------0-----x-0----0-0---|
|--2----------x---0-------|--2----------x-x----2-2---|
|-------------------------|--3--3---------x-3--------|
|
|  H.               E E     +E  Q   Q       E  E E
|-------------------------|--------------------------|
|-------------------------|--------------------------|
|-------------------7-6---|-(6)----------------------|
|-/9----------------7-7---|-(7)-7--------------------|
|-------------------------|---------9-------7----7---|
|-------------------------|-------------------10-----|


  D/B            A7         G                  Em
   E E E S S S S  E E S S   E E    E    S  S S S E E S S
|------2-2-2--------------|--------3----3--3-------------|
|------3-3-3--------2---2-|--------3----3--3-x-0---0-0-0-|
|------2---2-x-x----0-0-0-|--------0-------0-x-0---0-0-0-|
|----4-------x-x--2-2-2-2-|--------0---------x-2---2-2-2-|
|--2---------x----0-------|-2----------------------2-2---|
|-------------------------|-3-3------------------0-------|
|
|  H         E    E E E     E S S  S S  S  S E   E E E
|-------------------------|------------------------------|
|----------------10-------|-------10---10-10---------8---|
|------------x----x-x-6---|---6-7------------------7-----|
|-/9---------x----7-x-7---|----------------------9-------|
|-------------------------|------------------------------|
|-------------------------|------------------------------|


 Chorus
  D/B            A7          G
  E E E S  S S S E E S S     E E E  S S S S E E   S S
|-----2-2--2-------------|-------3--3-3-------3---3-3-|
|-----3-3--3-------2---2-|-------3--3-3-------3---3-3-|
|-----2----2-x-x---0-0-0-|-------0----0-------------0-|
|---4--------x-x-2-2-2-2-|-------0------x-0---0---0---|
|-2----------x---0-------|---2----------x-x---2---2---|
|------------------------|---3-3----------x-3---------|
|
| Gtr II
| E E E Q.         E E     a E Q    Q       E S S S S
|------------------------|----------------------------|
|-7---x-7----------7-----|-7h8-----10---------7-8-7---|
|---7-x-7------------7---|-----7------------7-------7-|
|------------------------|----------------------------|
|------------------------|----------------------------|
|------------------------|----------------------------|


  D/B            A7          G            Em
  E E E S  S S S E E S S     E E E  S S S S E E   S S
|-----2-2--2-------------|-------3--3-3----------------||
|-----3-3--3-------2---2-|-------3--3-3-x-0---0---0-0-o||
|-----2----2-x-x---0-0-0-|-------0----0-x-0---0---0-0--||
|---4--------x-x-2-2-2-2-|-------0------x-2---2---2-2--||
|-2----------x---0-------|---2----------------2---2---o||
|------------------------|---3-3------------0----------||
|
| E E E Q.         E E     a E Q    Q       E S S S S
|------------------------|-----------------------------||
|-7---x-7----------7-----|-7h8-----10---------7-8-7---o||
|---7-x-7------------7---|-----7------------7-------7--||
|------------------------|-----------------------------||
|------------------------|----------------------------o||
|------------------------|-----------------------------||


 Bridge
  D/B  Dadd11/B   A7    A13        G               A7
  Q  E H      E    Q  E H    E     Q  E Q  E E E    Q  E H    S S
|-2----2--------|--0----0------|---3----3------3-|--0----0---------|
|-3----3------x-|--2----2----x-|---3--x-3--3---3-|--2----2---------|
|-2--x-2------x-|--0--x-0----x-|---0--x-0----0-0-|--0--x-0---------|
|-4--x-5------x-|--2--x-4----x-|---0--x-0--------|--2--x-2---------|
|-2--x-2------x-|--0--x-0----x-|---2-------------|--0--x-0----2-0--|
|---------------|--------------|---3-------------|-----------------|
|
| Q  E Q.   E E    Q  E H    E   a Q  E H      E    Q  E H    S S
|---------------|--------------|-----------------|-----------------|
|-7----8----7-8-|-10---------7-|-7h8-----------8-|-10---------7----|
|----7----------|-----9-9------|------7-7--------|-----9-9------9--|
|---------------|--------------|-----------------|-----------------|
|---------------|--------------|-----------------|-----------------|
|---------------|--------------|-----------------|-----------------|


  D/B             A7    A13          G               A7
  Q  E Q.   E E    Q  E Q.   E E     Q  E Q  E E E    Q  E Q.   E S S
|-2----2----2---|--0----0----0---|---3----3------3-|--0----0----0------|
|-3----3----3-x-|--2----2----2-x-|---3--x-3--3---3-|--2----2----2------|
|-2--x-2----2-x-|--0--x-0----0-x-|---0--x-0----0-0-|--0--x-0----0------|
|-4--x-5----5-x-|--2--x-4----4-x-|---0--x-0--------|--2--x-2----2------|
|-2--x-2----2-x-|--0--x-0----0-x-|---2-------------|--0--x-0----0-2-0--|
|---------------|----------------|---3-------------|-------------------|
|
| Q  E Q.   E E    Q  E H      E   a Q  E H      E    Q  E H      S S
|---------------|----------------|-----------------|-------------------|
|-7----8----7-8-|-10-----------7-|-7h8-----------8-|-10-----------7----|
|----7----------|-----9-9--------|------7-7--------|-----9-9--------9--|
|---------------|----------------|-----------------|-------------------|
|---------------|----------------|-----------------|-------------------|
|---------------|----------------|-----------------|-------------------|


 Breakdown
  D/B            F#m7/A             Esus2/A   G/A      Bm/A
  Gtrs I, IV
   E  E  S  S  S  S S S E S S S S   E E S S S E.     E  S S S S
|-10-10-10-10--x--9-x-x-9-9-9-x-x-|-7-7-7-7-x-7------7--7-7-7-7-|
|--7--7--7--7--x--7-x-x-7-7-7-x-x-|-7-7-7-7-x-8------8--7-7-7-7-|
|--7--7--7--7--x--9-x-x-9-9-9-x-x-|-9-9-9-9-x-7------7--7-7-7-7-|
|--9--9--9--9--x--7-x-x-7-7-7-x-x-|-7-7-7-7-x-7------7--7-7-7-7-|
|---------------------------------|-----------------------------|
|---------------------------------|-----------------------------|
|
|  E  E  S  S  S  E   S E S S S S   E E S S S E   S  E  S S S S
|-10-10-10-10-12-12---9-9-9-9-9-9-|-7-7-7-7-9-9-----------------|
|---------------------------------|--------------10-10-10-7---7-|
|---------------------------------|-------------------------9---|
|---------------------------------|-----------------------------|
|---------------------------------|-----------------------------|
|---------------------------------|-----------------------------|


  D/B            F#m7/A             Esus2/A   G/A      Bm/A
  Gtrs I, IV, V
   E  E  S  S  S  S S S E S S S S   E E S S S E.     E  S S S S
|-10-10-10-10--x--9-x-x-9-9-9-x-x-|-7-7-7-7-x-7------7--7-7-7-7-|
|--7--7--7--7--x--7-x-x-7-7-7-x-x-|-7-7-7-7-x-8------8--7-7-7-7-|
|--7--7--7--7--x--9-x-x-9-9-9-x-x-|-9-9-9-9-x-7------7--7-7-7-7-|
|--9--9--9--9--x--7-x-x-7-7-7-x-x-|-7-7-7-7-x-7------7--7-7-7-7-|
|---------------------------------|-----------------------------|
|---------------------------------|-----------------------------|
|
|  E  E  S  S  S  E   S E S S S S   E E S S S E   S  E  S S S S
|-10-10-10-10-12-12---9-9-9-9-9-9-|-7-7-7-7-9-9-----------------|
|---------------------------------|--------------10-10-10-7---7-|
|---------------------------------|-------------------------9---|
|---------------------------------|-----------------------------|
|---------------------------------|-----------------------------|
|---------------------------------|-----------------------------|


 Solo
  D/B              F#m7/A              Esus2/A        G/A       Bm/A
   E  E     S  S S S S  S E S S  S S    E  E   S S  S E.      E S S  S  S
|-10-10----10-10-x-9-x--x-9-9-9--x-x-|--7--7---7-7--x-7-------7-7-7--7--7-|
|--7--7-----7--7-x-7-x--x-7-7-7--x-x-|--7--7---7-7--x-8-------8-7-7--7--7-|
|--7--7-----7--7-x-9-x--x-9-9-9--x-x-|--9--9---9-9--x-7-------7-7-7--7--7-|
|--9--9-----9--9-x-7-x--x-7-7-7--x-x-|--7--7---7-7--x-7-------7-7-7--7--7-|
|------------------------------------|------------------------------------|
|------------------------------------|------------------------------------|
|
| Gtr III
|                    ~~                                    ~~~~
|  E  S  E     S e   Q.          S S    E  S E   S  E      Q.        S  S
|-12-12-10----10-9---9-------------9-|-10-10-9---9------------------10-10-|
|-------------------------------10---|-------------10----/12--------------|
|------------------------------------|------------------------------------|
|------------------------------------|------------------------------------|
|------------------------------------|------------------------------------|
|------------------------------------|------------------------------------|


  D/B              F#m7/A              Esus2/A        G/A
   E  E     S  S S S S  S E S S  S S    E  E   S S  S E.      E Q
|-10-10----10-10-x-9-x--x-9-9-9--x-x-|--7--7---7-7--x-7-------7-7-------|
|--7--7-----7--7-x-7-x--x-7-7-7--x-x-|--7--7---7-7--x-8-------8-7-------|
|--7--7-----7--7-x-9-x--x-9-9-9--x-x-|--9--9---9-9--x-7-------7-7-------|
|--9--9-----9--9-x-7-x--x-7-7-7--x-x-|--7--7---7-7--x-7-------7-7-------|
|------------------------------------|----------------------------------|
|------------------------------------|----------------------------------|
|
|                    ~~                                    ~~~~
|  E  S  E     S e   Q.          S S    E  S E   S  E      Q.      S  S
|-12-12-10----10-9---9-------------9-|-10-10-9---9----------------10-10-|
|-------------------------------10---|-------------10----/12------------|
|------------------------------------|----------------------------------|
|------------------------------------|----------------------------------|
|------------------------------------|----------------------------------|
|------------------------------------|----------------------------------|


  D/B                 A7            G
   E  E  E  S  S  S S  E  E  S  S    E   E    E    S S  S  S E E  S  S
|--------2--2--2------------------|-----------3----3-3---------3--3--3-|
|--------3--3--3----------2-----2-|-----------3----3-3---------3--3--3-|
|--------2-----2--x-x-----0--0--0-|-----------0------0---------------0-|
|-----4-----------x-x--2--2--2--2-|-----------0---------x--0---0--0----|
|--2--------------x----0----------|--2------------------x--x---2--2----|
|---------------------------------|--3---3-----------------x-3---------|
|
|        ~~               ~~                            ~~~
|  E  e  E  S  S  E    e  E  S  S    S S S  S S S  S S  Q.        S  S
|-10-------------10---------------|-12-x-x-12-x-x-10-x-10-----------10-|
|----12-12-10h12------12-12-10h12-|------------------------------12----|
|---------------------------------|------------------------------------|
|---------------------------------|------------------------------------|
|---------------------------------|------------------------------------|
|---------------------------------|------------------------------------|


  D/B                   A7             G               Em
   E  E   E    S S  S S E    E   S S   E E   E   S S S S E E S S
|---------2----2-2-------------------|-------3---3-3--------------|
|---------3----3-3-----------2-----2-|-------3---3-3-x-0---0-0-0--|
|---------2------2--x-x------0---0-0-|-------0-----0-x-0---0-0-0--|
|-----4-------------x-x-2----2---2-2-|-------0-------x-2---2-2-2--|
|--2----------------x---0------------|-2-------------------2-2----|
|------------------------------------|-3-3---------------0--------|
|
|                                                    ~
|  E  S E   S  E    S E   S  S S S S   E S E   S E   H
|-10-10-7---7------------------------|----------------------------|
|-------------10---10-7---7-10-7---7-|----------------------------|
|--------------------------------9---|-9-9-7---7------------------|
|------------------------------------|-----------9---9------------|
|------------------------------------|----------------------------|
|------------------------------------|----------------------------|


  D/B               A7            G
  E E   E   S S S S E   E   S S   E E    E   S  S S S  E   E    S S
|-------2---2-2-----------------|--------3---3--3----------3----3-3-|
|-------3---3-3---------2-----2-|--------3---3--3----------3----3-3-|
|-------2-----2-x-x-----0---0-0-|--------0------0-----------------0-|
|---4-----------x-x-2---2---2-2-|--------0--------x-0------0----0---|
|-2-------------x---0-----------|-2---------------x-x------2----2---|
|-------------------------------|-3-3---------------x--3------------|
|
| E S E   S E   S E   S S S S S   E S S  S S S  S S S  S S S  S S S
|-------------------------------|-----------------------------------|
|-------------------------------|-------10-----10-----10-----10-----|
|-7---9-----7-----6-----6-7-6---|---6-7----6-7----6-7----6-7----6---|
|---9-----9-----9-----7-------7-|-9-------------------------------9-|
|-------------------------------|-----------------------------------|
|-------------------------------|-----------------------------------|


  D/B               A7            G                 Em
  E E   E   S S S S E   E   S S   E E    E   S  S S S  E   E    S S
|-------2---2-2-----------------|--------3---3--3-------------------|
|-------3---3-3---------2-----2-|--------3---3--3-x-0------0----0-0-|
|-------2-----2-x-x-----0---0-0-|--------0------0-x-0------0----0-0-|
|---4-----------x-x-2---2---2-2-|--------0--------x-2------2----2-2-|
|-2-------------x---0-----------|-2------------------------2----2---|
|-------------------------------|-3-3------------------0------------|
|
| E S E   S E   S E   S S S S S   E S S  S S S  S S S  S S S  S E
|-------------------------------|-------------------------------7---|
|-------------------------------|-------10-----10-----10-----10-----|
|-7---9-----7-----6-----6-7-6---|---6-7----6-7----6-7----6-7--------|
|---9-----9-----9-----7-------7-|-9---------------------------------|
|-------------------------------|-----------------------------------|
|-------------------------------|-----------------------------------|


  D/B                   A7            G
   E    E E  S    S S S E  E    S S    E    E E  S    S S S  E   E  S S
|---------2--2----2-----------------|---------3--3----3----------3--3-3-|
|---------3--3----3--------2------2-|---------3--3----3----------3--3-3-|
|---------2-------2-x-x----0----0-0-|---------0-------0---------------0-|
|-------4-----------x-x-2--2----2-2-|---------0---------x-0------0--0---|
|--2----------------x---0-----------|--2----------------x-x------2--2---|
|-----------------------------------|--3----3-------------x--3----------|
|
|  Q      E  Q          E  S S  S S    Q      E  Q           E   E  E
|---------7-------------7-10-7----7-|---------7-------------10-/12-12---|
|-10b12-----10b12--------------10---|-10b12-----10b12-------------------|
|-----------------------------------|-----------------------------------|
|-----------------------------------|-----------------------------------|
|-----------------------------------|-----------------------------------|
|-----------------------------------|-----------------------------------|


  D/B                           A7           G                   Em
   E    E  E          S  S  S S  E  E  S S    E   E    E   S S S S E E S S
|----------2----------2--2-----------------|-----------3---3-3-------------|
|----------3----------3--3----------2----2-|-----------3---3-3-x-0---0-0-0-|
|----------2-------------2--x-x-----0--0-0-|-----------0-----0-x-0---0-0-0-|
|-------4-------------------x-x--2--2--2-2-|-----------0-------x-2---2-2-2-|
|--2------------------------x----0---------|--2----------------------2-2---|
|------------------------------------------|--3---3----------------0-------|
|
|  ~~~~~
|  Q       S     +S   S  S  e    E  E  S S    S S S S  S S S S H
|-12b14---12b14r(12)-10----10---10---------|-------------------------------|
|-----------------------12---------12-10s7-|-10-7---7-10-7s5s3-0-----------|
|------------------------------------------|------9------------------------|
|------------------------------------------|-------------------------------|
|------------------------------------------|-------------------------------|
|------------------------------------------|-------------------------------|


 Verse
  D/B             A7        G
   E  E E S S S S E E S S    E  E E S S S S E  E S S
|-------2-2-2-------------|-------3-3-3--------3-3-3-|
|-------3-3-3-------2---2-|-------3-3-3--------3-3-3-|
|-------2---2-x-x---0-0-0-|-------0---0------------0-|
|-----4-------x-x-2-2-2-2-|-------0-----x-0----0-0---|
|--2----------x---0-------|--2----------x-x----2-2---|
|-------------------------|--3--3---------x-3--------|
|
|  >
| +W                         W
|-------------------------|--------------------------|
|-(0)---------------------|--------------------------|
|-------------------------|--------------------------|
|-------------------------|--------------------------|
|-------------------------|--------------------------|
|-------------------------|--------------------------|
|
| Gtr II
|  H.               E E     +E  Q   Q       E  E E
|-------------------------|--------------------------|
|-------------------------|--------------------------|
|-------------------7-6---|-(6)----------------------|
|-/9----------------7-7---|-(7)-7--------------------|
|-------------------------|---------9-------7----7---|
|-------------------------|-------------------10-----|


  D/B            A7         G                 Em
   E E E S S S S  E E S S   E E    E   S  S S S  E   E   S S
|------2-2-2--------------|--------3---3--3------------------|
|------3-3-3--------2---2-|--------3---3--3-x-0------0---0-0-|
|------2---2-x-x----0-0-0-|--------0------0-x-0------0---0-0-|
|----4-------x-x--2-2-2-2-|--------0--------x-2------2---2-2-|
|--2---------x----0-------|-2------------------------2---2---|
|-------------------------|-3-3------------------0-----------|
|
| Gtr II
|  H         E    E E E     E S S  S S S  S S S  S S S S S S
|-------------------------|----------------------------------|
|----------------10-------|-------10-----10-----10-----------|
|------------x----x-x-6---|---6-7----6-7----6-7----6-7---6---|
|-/9---------x----7-x-7---|----------------------------9---7-|
|-------------------------|----------------------------------|
|-------------------------|----------------------------------|


  D/B             A7        G
   E  E E S S S S E E S S    E  E E S S S S E  E S S
|-------2-2-2-------------|-------3-3-3--------3-3-3-|
|-------3-3-3-------2---2-|-------3-3-3--------3-3-3-|
|-------2---2-x-x---0-0-0-|-------0---0------------0-|
|-----4-------x-x-2-2-2-2-|-------0-----x-0----0-0---|
|--2----------x---0-------|--2----------x-x----2-2---|
|-------------------------|--3--3---------x-3--------|
|
|  H.               E E     +E  Q   Q       E  E E
|-------------------------|--------------------------|
|-------------------------|--------------------------|
|-------------------7-6---|-(6)----------------------|
|-/9----------------7-7---|-(7)-7--------------------|
|-------------------------|---------9-------7----7---|
|-------------------------|-------------------10-----|


  D/B            A7         G                  Em
   E E E S S S S  E E S S   E E    E    S  S S S E E S S
|------2-2-2--------------|--------3----3--3-------------|
|------3-3-3--------2---2-|--------3----3--3-x-0---0-0-0-|
|------2---2-x-x----0-0-0-|--------0-------0-x-0---0-0-0-|
|----4-------x-x--2-2-2-2-|--------0---------x-2---2-2-2-|
|--2---------x----0-------|-2----------------------2-2---|
|-------------------------|-3-3------------------0-------|
|
|  H         E    E E E     E S S  S S  S  S E   E E E
|-------------------------|------------------------------|
|----------------10-------|-------10---10-10---------8---|
|------------x----x-x-6---|---6-7------------------7-----|
|-/9---------x----7-x-7---|----------------------9-------|
|-------------------------|------------------------------|
|-------------------------|------------------------------|


 Chorus
  D/B            A7          G
  E E E S  S S S E E S S     E E E  S S S S E E   S S
|-----2-2--2-------------|-------3--3-3-------3---3-3-|
|-----3-3--3-------2---2-|-------3--3-3-------3---3-3-|
|-----2----2-x-x---0-0-0-|-------0----0-------------0-|
|---4--------x-x-2-2-2-2-|-------0------x-0---0---0---|
|-2----------x---0-------|---2----------x-x---2---2---|
|------------------------|---3-3----------x-3---------|
|
| E E E Q.         E E     a E Q    Q       E S S S S
|------------------------|----------------------------|
|-7---x-7----------7-----|-7h8-----10---------7-8-7---|
|---7-x-7------------7---|-----7------------7-------7-|
|------------------------|----------------------------|
|------------------------|----------------------------|
|------------------------|----------------------------|


  D/B            A7          G            Em
  E E E S  S S S E E S S     E E E  S S S S E E   S S
|-----2-2--2-------------|-------3--3-3---------------|
|-----3-3--3-------2---2-|-------3--3-3-x-0---0---0-0-|
|-----2----2-x-x---0-0-0-|-------0----0-x-0---0---0-0-|
|---4--------x-x-2-2-2-2-|-------0------x-2---2---2-2-|
|-2----------x---0-------|---2----------------2---2---|
|------------------------|---3-3------------0---------|
|
| E E E Q.         E E     a E Q    Q       E S S S S
|------------------------|----------------------------|
|-7---x-7----------7-----|-7h8-----10---------7-8-7---|
|---7-x-7------------7---|-----7------------7-------7-|
|------------------------|----------------------------|
|------------------------|----------------------------|
|------------------------|----------------------------|


 Outro
  D/B  Dadd11/B   A7    A13        G               A7
  Q  E H      E    Q  E H    E     Q  E Q  E E E    Q  E H    S S
|-2----2--------|--0----0------|---3----3------3-|--0----0---------|
|-3----3------x-|--2----2----x-|---3--x-3--3---3-|--2----2---------|
|-2--x-2------x-|--0--x-0----x-|---0--x-0----0-0-|--0--x-0---------|
|-4--x-5------x-|--2--x-4----x-|---0--x-0--------|--2--x-2---------|
|-2--x-2------x-|--0--x-0----x-|---2-------------|--0--x-0----2-0--|
|---------------|--------------|---3-------------|-----------------|
|
| Q  E Q.   E E    Q  E H    E   a Q  E H      E    Q  E H    S S
|---------------|--------------|-----------------|-----------------|
|-7----8----7-8-|-10---------7-|-7h8-----------8-|-10---------7----|
|----7----------|-----9-9------|------7-7--------|-----9-9------9--|
|---------------|--------------|-----------------|-----------------|
|---------------|--------------|-----------------|-----------------|
|---------------|--------------|-----------------|-----------------|


  D/B  Dadd11/B   A7    A13          G               A7
  Q  E Q.   E E    Q  E Q.   E E     Q  E Q  E E E    Q  E Q.   E S S
|-2----2----2---|--0----0----0---|---3----3------3-|--0----0----0------|
|-3----3----3-x-|--2----2----2-x-|---3--x-3--3---3-|--2----2----2------|
|-2--x-2----2-x-|--0--x-0----0-x-|---0--x-0----0-0-|--0--x-0----0------|
|-4--x-5----5-x-|--2--x-4----4-x-|---0--x-0--------|--2--x-2----2------|
|-2--x-2----2-x-|--0--x-0----0-x-|---2-------------|--0--x-0----0-2-0--|
|---------------|----------------|---3-------------|-------------------|
|
| Q  E Q.   E E    Q  E H      E   a Q  E H      E    Q  E H      S S
|---------------|----------------|-----------------|-------------------|
|-7----8----7-8-|-10-----------7-|-7h8-----------8-|-10-----------7----|
|----7----------|-----9-9--------|------7-7--------|-----9-9--------9--|
|---------------|----------------|-----------------|-------------------|
|---------------|----------------|-----------------|-------------------|
|---------------|----------------|-----------------|-------------------|


  D/B            F#m7/A             Esus2/A   G/A      Bm/A
   E  E  S  S  S  S S S E S S S S   E E S S S E.     E  S S S S
|-10-10-10-10--x--9-x-x-9-9-9-x-x-|-7-7-7-7-x-7------7--7-7-7-7-|
|--7--7--7--7--x--7-x-x-7-7-7-x-x-|-7-7-7-7-x-8------8--7-7-7-7-|
|--7--7--7--7--x--9-x-x-9-9-9-x-x-|-9-9-9-9-x-7------7--7-7-7-7-|
|--9--9--9--9--x--7-x-x-7-7-7-x-x-|-7-7-7-7-x-7------7--7-7-7-7-|
|---------------------------------|-----------------------------|
|---------------------------------|-----------------------------|
|
|  E  E  S  S  S  E   S E S S S S   E E S S S E   S  E  S S S S
|-10-10-10-10-12-12---9-9-9-9-9-9-|-7-7-7-7-9-9-----------------|
|---------------------------------|--------------10-10-10-7---7-|
|---------------------------------|-------------------------9---|
|---------------------------------|-----------------------------|
|---------------------------------|-----------------------------|
|---------------------------------|-----------------------------|


                                    H.=H
  D/B            F#m7/A             Esus2/A   G/A      Bm/A       Bm
   E  E  S  S  S  S S S E S S S S   E E S S S E.     E  S S S S    W
|-10-10-10-10--x--9-x-x-9-9-9-x-x-|-7-7-7-7-x-7------7--7-7-7-7-|-^7----*|
|--7--7--7--7--x--7-x-x-7-7-7-x-x-|-7-7-7-7-x-8------8--7-7-7-7-|-^7----*|
|--7--7--7--7--x--9-x-x-9-9-9-x-x-|-9-9-9-9-x-7------7--7-7-9p7-|-^7----*|
|--9--9--9--9--x--7-x-x-7-7-7-x-x-|-7-7-7-7-x-7------7--7-7-7-7-|-^9----*|
|---------------------------------|-----------------------------|-^9----*|
|---------------------------------|-----------------------------|-^7----*|
|
|  E  E  S  S  S  E   S E S S S S   E E S S S E   S  E  S S S S    W
|-10-10-10-10-12-12---9-9-9-9-9-9-|-7-7-7-7-9-9-----------------|-^7----*|
|---------------------------------|--------------10-10-10-7-----|-^7----*|
|---------------------------------|-------------------------9-7-|-^7----*|
|---------------------------------|-----------------------------|-^9----*|
|---------------------------------|-----------------------------|-^9----*|
|---------------------------------|-----------------------------|-^7----*|


Duration Legend
---------------
W - whole; H - half; Q - quarter; E - 8th; S - 16th; T - 32nd; X - 64th; a - acciaccatura
+ - note tied to previous; . - note dotted; .. - note double dotted
Uncapitalized letters represent notes that are staccato (1/2 duration)
Irregular groupings are notated above the duration line
Duration letters will always appear directly above the note/fret number it represents the
duration for.  Duration letters with no fret number below them represent rests.  Multi-
bar rests are notated in the form Wxn, where n is the number of bars to rest for.  Low
melody durations appear below the staff

Tablature Legend
----------------
 h   - hammer-on
 p   - pull-off
 b   - bend
 pb  - pre-bend
 r   - bend release (if no number after the r, then release immediately)
 /\  - slide into or out of (from/to "nowhere")
 s   - legato slide
 S   - shift slide
  - natural harmonic
[n]  - artificial harmonic
n(n) - tapped harmonic
 ~   - vibrato
 tr  - trill
 T   - tap
 TP  - trem. picking
 PM  - palm muting
\n/  - tremolo bar dip; n = amount to dip
 \n  - tremolo bar down
 n/  - tremolo bar up
/n\  - tremolo bar inverted dip
 =   - hold bend; also acts as connecting device for hammers/pulls
 <>  - volume swell (louder/softer)
 x   - on rhythm slash represents muted slash
 o   - on rhythm slash represents single note slash

Misc Legend
-----------
 |  - bar
||  - double bar
||o - repeat start
o|| - repeat end
*|  - double bar (ending)
 :  - bar (freetime)
 $  - Segno
 &  - Coda
Tempo markers -  = BPM(8/16=s8/s16), where s8 = swing 8ths, s16 = swing 16ths


***************************************************************************************
***************************************************************************************





Comments


Popular Quinn Peck tabs & chords
Going Down Bass Tabs
What I Could Have Said Bass Tabs
Wonderful Week Bass Tabs
As She Smiles Tabs
Half Way Around Tabs
Motorized Miracles Forever Tabs
The Midnight Sun Tabs
Walking Alone Tabs
What I Could Have Said Tabs
Wonderful Week Tabs


Song lyrics



↑ Back to top | Tablatures and chords are parodies/interpretations of the original songs. You may use it for private study, scholarship, research or language learning purposes only
© 2014 AZChords.com Contact us | Privacy policy | DMCA | Add/correct tabs | Request tabs | Top 50 tabs