>
 >
Crystal Stairs

Crystal Stairs Guitar Tabs

Quinn Peck - Crystal Stairs chords, tabs, tablatures, lyrics

Guitar lessons | Add/correct | Request | Top 50 tabs Artists:  A B C D E F G H I J K L M N O P Q R S T U V W X Y Z 0-9

Crystal Stairs Guitar Tabs – Quinn Peck

CD, Sheet music, Poster

Do you like Crystal Stairs? Share with your friends now
Tabs
#------------------------------------------------------------------------------##

                                 CRYSTAL STAIRS
                            As recorded by Quinn Peck

Music by Quinn Peck
Arranged by guitarist5240

Gtr I (E A D G B E) - 'Untitled'
Gtr II (E A D G B E) - 'Untitled'
Gtr III (E A D G B E) - 'Untitled'
Gtr IV (E A D G B E) - 'Untitled'
Gtr V (E A D G B E) - 'Untitled'
Gtr VI (E A D G B E) - 'Untitled'

 Intro
  Q=100
  A5/F#                  D/F#
 4/4
  Gtr I
  Q  E S S S S E E S S   Q  E S E S E E  E
|----------------------|--------------------|
|----------------------|--------------------|
|----9-9-9-x-9---9-x-x-|----7-7-7-7---7--9--|
|----7-7-7-x-7---7-x-x-|----7-7-7-7---7-(7)-|
|-9------------9-------|-9----------9-------|
|----------------------|--------------------|


  A/C#                 D5/B
  Q  E S S S S E E E   Q  E S S S S E E  E
|--------------------|------------------------|
|--------------------|------------------------|
|--------------------|------------6---6--7----|
|----7-7-7-x-7-----7-|----7-7-7-x-7---7-(7)---|
|----7-7-7-x-7---7---|----5-5-5-x-5---5-(5)---|
|-9------------9-----|-7------------7---------|


  A5/F#                        D/F#
   Q    E  S  S S S E  E S S   Q   E  S  E  S E E  E
|----------------------------|------------------------|
|------10-10-10---7---10-x-x-|----10-10-10-10---7--7--|
|-(7)---9--9--9-x-9----9-x-x-|-----7--7--7--7---7--9--|
|-------7--7--7-x-7----7-x-x-|-----7--7--7--7---7-(7)-|
|--9----------------9--------|-9--------------9-------|
|----------------------------|------------------------|


  A/C#                   D5/B
  Q  E S S S S E S S E   Q  E S S S S E E  E
|----------------------|------------------------|
|----------------------|------------------------|
|----9-9-9---7---------|----7-7-7---6---6--7----|
|----7-7-7-x-7-------7-|----7-7-7-x-7---7-(7)---|
|----7-7-7-x-7---7h9---|----5-5-5-x-5---5-(5)---|
|-9------------9-------|-7------------7---------|


  A5/F#                          D/F#
   Q    E  S  S  S  S E  E S S   Q   E  S  E      S E E  E
|------------------------------|----------------------------|
|------10-10-10-----7---10-x-x-|----10-10-10-----10---7--7--|
|-(7)---9--9--9--x--9----9-x-x-|-----7--7--7------7---7--9--|
|-------7--7--7--x--7----7-x-x-|-----7--7--7------7---7-(7)-|
|--9------------------9--------|-9------------------9-------|
|------------------------------|----------------------------|
|
| Gtr II
|                 
|  H            +H               H           +H
|------------------------------|----------------------------|
|------------------------------|----------------------------|
|------------------------------|----------------------------|
|------------------------------|----------------------------|
|--9------------(9)------------|-5-----------(5)------------|
|------------------------------|----------------------------|


  A/C#                   D5/B
  Q  E S S  S  S E E E   Q  E S S  S  S E E  E
|----------------------|--------------------------|
|----------------------|--------------------------|
|----9-9-9-----7-------|----7-7-7-----6---6--7----|
|----7-7-7--x--7-----7-|----7-7-7--x--7---7-(7)---|
|----7-7-7--x--7---7---|----5-5-5--x--5---5-(5)---|
|-9--------------9-----|-7--------------7---------|
|
|             <
| H        +H            H        +H
|----------------------|--------------------------|
|----------------------|--------------------------|
|----------------------|--------------------------|
|----------------------|--------------------------|
|-4--------(4)---------|-2--------(2)-------------|
|----------------------|--------------------------|


  A5/F#                         D/F#
  Q    E  S  S S S E  E   S S   Q    E  S  E  S E E    E
|-----------------------------|---------------------------|
|-----10-10-10---7---10---x-x-|-----10-10-10-10---7----7--|
|-7----9--9--9-x-9----9---x-x-|------7--7--7--7---7----9--|
|------7--7--7-x-7----7---x-x-|------7--7--7--7---7---(7)-|
|-9----------------9----------|-9---------------9---------|
|-----------------------------|---------------------------|
|
| H.                  S S E     H.                S S  E
|-----------------------------|---------------------------|
|-----------------------------|---------------------------|
|-----------------------------|---------------------------|
|---------------------4-5-4---|-------------------4-5--4--|
|-5---------------------------|-5-------------------------|
|-----------------------------|---------------------------|


  A/C#                   D5/B
  Q  E S S S S E E E     Q   E   S S S S E   E  E
|--------------------|-------------------------------|
|--------------------|-------------------------------|
|----9-9-9---7-------|-------7---7-7---6-----6--7----|
|----7-7-7-x-7-----7-|-------7---7-7-x-7-----7-(7)---|
|----7-7-7-x-7---7---|-------5---5-5-x-5-----5-(5)---|
|-9------------9-----|---7---------------7-----------|
|
| Q  E H           E   a E E E a Q       S S E  E
|--------------------|-------------------------------|
|--------------------|-------------------------------|
|--------------------|-------------------------------|
|----x-7-------------|-4h5-4-2-2h4-------4h5p4--2----|
|----x---------------|-------------------------------|
|-5----------------5-|-------------------------------|


 Chorus
  $
  A5/F#                         D/F#
  Q    E  S  S S S E  E   S S   Q    E  S  E    S E E    E
|-----------------------------|-------------------------------|
|-----10-10-10---7---10---x-x-|-----10-10-10---10---7----7----|
|-7----9--9--9-x-9----9---x-x-|------7--7--7----7---7----9----|
|------7--7--7-x-7----7---x-x-|------7--7--7----7---7---(7)---|
|-9----------------9----------|-9-----------------9-----------|
|-----------------------------|-------------------------------|
|
| H.                  S S E     H.                  S S  E
|-----------------------------|-------------------------------|
|-----------------------------|-------------------------------|
|-----------------------------|-------------------------------|
|---------------------4-5-4---|---------------------4-5--4----|
|-5---------------------------|-5-----------------------------|
|-----------------------------|-------------------------------|
|
| Gtr III
| Q    E  S  S S S E  E   S S   Q    E  S  S S  S E E    S  S
|-----------------------------|-------------------------------|
|-----------------------------|-------------------------------|
|------7-----7---7----7-----7-|------7-----7----7---7-------7-|
|-0-------0----0---0------0---|-0-------0----0----0------0----|
|-----------------------------|-------------------------------|
|-----------------------------|-------------------------------|


  A/C#                    D5/B
  Q  E S S S S E E E       Q    E    S S S S  E     E  E
|--------------------|------------------------------------|
|--------------------|------------------------------------|
|----9-9-9---7-------|----------7----7-7---6--------6--7--|
|----7-7-7-x-7-----7-|----------7----7-7-x-7--------7-(7)-|
|----7-7-7-x-7---7---|----------5----5-5-x-5--------5-(5)-|
|-9------------9-----|-----7------------------7-----------|
|
| Q  E H           E    a  E  E E a  Q        S  S  E  E
|--------------------|------------------------------------|
|--------------------|------------------------------------|
|--------------------|------------------------------------|
|----x-7-------------|--4h=5--4-2-2h=4--------4h=5p=4--2--|
|----x---------------|------------------------------------|
|-5----------------5-|------------------------------------|
|
| Q  E S S S S E E E    a  E  E E a  Q        S  S  E  E
|--------------------|------------------------------------|
|--------------------|------------------------------------|
|----9---9---9---9---|-11s12-11-9-9s11-------11h12p11--9--|
|--------------------|------------------------------------|
|-7----7---7---7---7-|--9s10--9-7-7s=9--------9h10p=9--7--|
|--------------------|------------------------------------|


  A5/F#                           D/F#
  Q    E  S  S S  S E  E   S  S   Q    E  S  E    S E  E    E
|-------------------------------|------------------------------|
|-----10-10-10----7---10---x--x-|-----10-10-10---10----7----7--|
|-7----9--9--9-x--9----9---x--x-|------7--7--7----7----7----9--|
|------7--7--7-x--7----7---x--x-|------7--7--7----7----7---(7)-|
|-9-----------------9-----------|-9-----------------9----------|
|-------------------------------|------------------------------|
|
| H.                   S S E      H.                   S S  E
|-------------------------------|------------------------------|
|-------------------------------|------------------------------|
|-------------------------------|------------------------------|
|----------------------4-5-4----|----------------------4-5--4--|
|-5-----------------------------|-5----------------------------|
|-------------------------------|------------------------------|
|
| Q    E  S  S S  S E  E   S  S   Q    E  S  S S  S E  E    E
|-------------------------------|------------------------------|
|-----10----10---10---10-----10-|-----10----10---10---10-------|
|-7-------7----7----7------7----|-7-------7----7----7-------7--|
|-------------------------------|------------------------------|
|-------------------------------|------------------------------|
|-------------------------------|------------------------------|


  A/C#                        D5/B
  Q   E S  S S  S E  E E       Q     E     S S S S  E     E  E
|------------------------|---------------------------------------|
|------------------------|---------------------------------------|
|-----9-9--9----7--------|-----------7-----7-7---6--------6--7---|
|-----7-7--7-x--7------7-|-----------7-----7-7-x-7--------7-(7)--|
|-----7-7--7-x--7----7---|-----------5-----5-5-x-5--------5-(5)--|
|-9---------------9------|-----7--------------------7------------|
|
| Q   E H              E    a  E  E  E  a  Q        S  S  E  E
|------------------------|---------------------------------------|
|------------------------|---------------------------------------|
|------------------------|---------------------------------------|
|-----x-7----------------|--4h=5--4--2--2h=4--------4h=5p=4--2---|
|-----x------------------|---------------------------------------|
|-5--------------------5-|---------------------------------------|
|
| Q   E S  S S  S E  E E    a  E  E  E  a  Q        S  S  E  E
|------------------------|-14s15-14-12-12s14-------14h15p14-12---|
|----10---10---10---10---|---------------------------------------|
|-6-----6----6----6----6-|-11s12-11--9--9s11-------11h12p11--9---|
|------------------------|---------------------------------------|
|------------------------|---------------------------------------|
|------------------------|---------------------------------------|


  A5/F#                         D/F#
   Q   E  S  S S  S E  E S  S    Q    E  S  E    S E  E  E
|-----------------------------|-----------------------------|
|-----10-10-10----7---10-x--x-|------10-10-10---10----7--7--|
|--7---9--9--9-x--9----9-x--x-|-------7--7--7----7----7--9--|
|------7--7--7-x--7----7-x--x-|-------7--7--7----7----7-(7)-|
|--9----------------9---------|--9-----------------9--------|
|-----------------------------|-----------------------------|
|
| Gtrs II, III
|  >
|  W                            +W
|-10--------------------------|-----------------------------|
|-----------------------------|-----------------------------|
|--7--------------------------|-----------------------------|
|--0--------------------------|-(0)-------------------------|
|-----------------------------|-----------------------------|
|-----------------------------|-----------------------------|
|
| Gtr IV
|  Q   E  S  S S  S E  E S  S    Q    E  S  S S  S E  E  E
|-----------------------------|-----------------------------|
|-----10----10---10---10---10-|------10----10---10---10-----|
|--7------7----7----7----7----|--7-------7----7----7-----7--|
|-----------------------------|-----------------------------|
|-----------------------------|-----------------------------|
|-----------------------------|-----------------------------|


  A/C#                     D5/B
  Q   E S  S S  S E  E E   Q   E S S  S  S E E E
|------------------------|-------------------------|
|------------------------|-------------------------|
|-----9-9--9----7--------|-----7-7-7-----6---6-7---|
|-----7-7--7-x--7------7-|-----7-7-7--x--7---7-7---|
|-----7-7--7-x--7----7---|-----5-5-5--x--5---5-5---|
|-9---------------9------|-7---------------7-------|
|
| W                        W
|------------------------|-------------------------|
|------------------------|-------------------------|
|------------------------|-------------------------|
|------------------------|-------------------------|
|------------------------|-------------------------|
|------------------------|-------------------------|
|
| Q   E S  S S  S E  E E   E E E E   +H
|------------------------|-2-----2---(2)-----------|
|----10---10---10---10---|---3---------------------|
|-6-----6----6----6----6-|-----2-------------------|
|------------------------|-------------------------|
|------------------------|-------------------------|
|------------------------|-------------------------|


 Pre-Verse
  A5/F#                   E7
  Q   E.  S S  S E  E E   Q  E. S S S E E E
|-----------------------|-------------------|
|----10--10-x-10---10---|----9--9-x-9---9---|
|-----9---9-x--9----9---|----7--7-x-7---7---|
|-----7---7-x--7----7---|----9--9-x-9---9---|
|-9---9----------9----9-|-7--7--------7---7-|
|-----------------------|-------------------|
|
| Gtr V
| <                       <
| ~~~~~~~~~~~~~~~~~~~~~~~~~~~~~~~~~~~~~~~~~~~
| W                       W
|-----------------------|-------------------|
|-----------------------|-------------------|
|-----------------------|-------------------|
|-----------------------|-------------------|
|-9---------------------|-7-----------------|
|-----------------------|-------------------|


  F#m/D               C#7
  Q  E. S S S E E E   Q  E. S S S E E E
|-------------------|---------------------|
|----7--7-x-7---7---|----6--6-x-6---6-----|
|----6--6-x-6---6---|----4--4-x-4---4-----|
|----7--7-x-7---7---|----6--6-x-6---6-----|
|-5--5--------5---5-|-4--4--------4---4---|
|-------------------|---------------------|
|
| <                   <
|~~~~~~~~~~~~~~~~~~~~~~~
| W                   W
|-------------------|---------------------|
|-------------------|---------------------|
|-------------------|---------------------|
|-------------------|---------------------|
|-5-----------------|-4-------------------|
|-------------------|---------------------|


 Verse
  A5/F#                       E7
  Q   E.  S  S   S E  E E     Q  E. S  S  S E E E
|-------------------------|-----------------------|
|----10--10--x--10---10---|------9--9--x--9---9---|
|-----9---9--x---9----9---|------7--7--x--7---7---|
|-----7---7--x---7----7---|------9--9--x--9---9---|
|-9---9------------9----9-|---7--7----------7---7-|
|-------------------------|-----------------------|
|
| Gtr V
| ~~~~~~~~~~~~~~              ~~~~~~~~~~~~
| H         +E     E  E E   a H       +E    E E E
|-------------------------|-----------------------|
|-------------------------|-----------------------|
|-------------------------|-----------------------|
|------------------6--7-9-|-----------------9-7-6-|
|-9---------(9)-----------|-5s7-------(7)---------|
|-------------------------|-----------------------|


  F#m/D                 C#7
  Q  E. S  S  S E E E   Q  E. S S S E E E
|---------------------|--------------------|
|----7--7--x--7---7---|----6--6-x-6---6----|
|----6--6--x--6---6---|----4--4-x-4---4----|
|----7--7--x--7---7---|----6--6-x-6---6----|
|-5--5----------5---5-|-4--4--------4---4--|
|---------------------|--------------------|
|
| ~~~~~~~~~~~~          ~
| H       +E    E E E   H       E   E E E
|---------------------|--------------------|
|---------------------|--------------------|
|---------------------|--------------------|
|---------------7-7-6-|-------------7-6----|
|-5-------(5)---------|---------7-------7--|
|---------------------|-9------------------|


  A5/F#                               E7
   Q   E.  S  S   S E     E   E       Q  E. S  S  S E    E   E
|---------------------------------|------------------------------|
|-----10--10--x--10------10-------|------9--9--x--9------9-------|
|------9---9--x---9-------9-------|------7--7--x--7------7-------|
|------7---7--x---7-------7-------|------9--9--x--9------9-------|
|--9---9------------9---------9---|---7--7----------7--------7---|
|---------------------------------|------------------------------|
|
|  ~~~~~~~~~~~~~~                     ~~~~~~~~~~~~
|  H         +E     S  S  S S S S     H       +E    S  S S S S S
|---------------------------------|------------------------------|
|---------------------------------|------------------------------|
|---------------------------------|------------------------------|
|-------------------6--7--9-6-7-6-|---9-------(9)---9--7-6-7-6---|
|-/9---------(9)------------------|----------------------------7-|
|---------------------------------|------------------------------|
|
| Gtr II
|  ~~~~~~~~~~~~~~                     ~~~~~~~~~~~~
|  H         +E     Q.              a H       +E    Q.
|---------------------------------|------------------------------|
|---------------------------------|------------------------------|
|---------------------------------|------------------------------|
|-------------------7-------------|-----------------9------------|
|--9---------(9)------------------|-5s7-------(7)----------------|
|---------------------------------|------------------------------|


  F#m/D                  C#7
  Q  E. S  S  S E  E E   Q  E. S  S  S E    E E
|----------------------|---------------------------|
|----7--7--x--7----7---|----6--6--x--6------6------|
|----6--6--x--6----6---|----4--4--x--4------4------|
|----7--7--x--7----7---|----6--6--x--6------6------|
|-5--5----------5----5-|-4--4----------4------4----|
|----------------------|---------------------------|
|
| ~~~~~~~~~~~~           ~~~~~~~~~~~~
| H       +E    E  E E   H       +E    E  a E E
|----------------------|---------------------------|
|----------------------|-6-------(6)---6--6h7-6----|
|-7-------(7)----------|-4-------(4)---------------|
|---------------7--7-6-|---------------------------|
|----------------------|---------------------------|
|----------------------|---------------------------|
|
| ~~~~~~~~~~~~           ~~~~~~~~~~~~
| H       +E    Q.       H       +E    Q.
|----------------------|---------------------------|
|----------------------|---------------------------|
|----------------------|---------------------------|
|---------------7------|---------------6-----------|
|-5-------(5)----------|---------------------------|
|----------------------|-9-------(9)---------------|


  A5/F#                             E7
  Q   E.  S  S   S E    E   E       Q  E. S  S  S E  E   E
|-------------------------------|----------------------------|
|----10--10--x--10-----10-------|------9--9--x--9----9-------|
|-----9---9--x---9------9-------|------7--7--x--7----7-------|
|-----7---7--x---7------7-------|------9--9--x--9----9-------|
|-9---9------------9--------9---|---7--7----------7------7---|
|-------------------------------|----------------------------|
|
| ~~~~~~~~~~~~~~                    ~~~~~~~~~~~~
| H         +E     S S  S S S S     H       +Q       S S S S
|-------------------------------|----------------------------|
|-7---------(7)----7-9-10-7-9-7-|---9-------(9)-----10-9-7---|
|-------------------------------|--------------------------9-|
|-------------------------------|----------------------------|
|-------------------------------|----------------------------|
|-------------------------------|----------------------------|
|
| ~~~~~~~~~~~~~~                    ~~~~~~~~~~~~
| H         +E     E    E   E     a H       +E    E  E   E
|-------------------------------|----------------------------|
|-------------------------------|----------------------------|
|-------------------------------|----------------------------|
|------------------6----7---9---|-----------------9--7---6---|
|-9---------(9)-----------------|-5s7-------(7)--------------|
|-------------------------------|----------------------------|


  F#m/D                            C#7
   Q    E.    S  S  S E  E   E      Q  E. S  S S E E E
|--------------------------------|------------------------|
|-------7-----7--x--7----7-------|-----6--6--x-6---6------|
|-------6-----6--x--6----6-------|-----4--4--x-4---4------|
|-------7-----7--x--7----7-------|-----6--6--x-6---6------|
|--5----5-------------5------5---|--4--4---------4---4----|
|--------------------------------|------------------------|
|
|  ~~~~~~~~      ~~~~~~~~~~~        TP       TP
|  Q   +E  S  S  Q      +E   S S    H        Q     E E
|----------------7------(7)----7-|--9-------10-----9-7----|
|-10--(10)-9-10--9------(9)-10---|-10-------12------------|
|--7---(7)-----------------------|------------------------|
|--------------------------------|------------------------|
|--------------------------------|------------------------|
|--------------------------------|------------------------|
|
|  ~~~~~~~~~~~~~~~~~                ~~
|  H            +E    E  E   E      H        E   E E E
|--------------------------------|------------------------|
|--------------------------------|------------------------|
|--------------------------------|------------------------|
|---------------------7--7---6---|---------------7-6------|
|--5------------(5)--------------|-----------7-------7----|
|--------------------------------|--9---------------------|


  A5/F#                                 E7
   Q   E.  S   S   S E     E    E       Q  E. S  S  S  E    E    E
|-----------------------------------|--------------------------------|
|-----10--10---x--10------10--------|------9--9--x--9-------9--------|
|------9---9---x---9-------9--------|------7--7--x--7-------7--------|
|------7---7---x---7-------7--------|------9--9--x--9-------9--------|
|--9---9-------------9----------9---|---7--7-----------7---------7---|
|-----------------------------------|--------------------------------|
|
|  ~~~~~~~~~~~~~~~                      ~~~~~~~~~~~~
|  H          +E     S  S  S S  S S     H       +E     S  S S  S S S
|-----------------------------------|--------------------------------|
|-10---------(10)----9-10-12-9-10-9-|---9-------(9)---12-10-9-10-9---|
|-11---------(11)-------------------|---9-------(9)----------------9-|
|-----------------------------------|--------------------------------|
|-----------------------------------|--------------------------------|
|-----------------------------------|--------------------------------|
|
|  ~~~~~~~~~~~~~~~                      ~~~~~~~~~~~~
|  H          +E     E     E    E     a H       +E     E    E    E
|-----------------------------------|--------------------------------|
|-----------------------------------|--------------------------------|
|-----------------------------------|--------------------------------|
|--------------------6-----7----9---|------------------9----7----6---|
|--9----------(9)-------------------|-5s7-------(7)------------------|
|-----------------------------------|--------------------------------|


  F#m/D                  C#7
  Q  E. S  S  S E  E E    Q  E. S  S S  E E  E
|----------------------|-----------------------|
|----7--7--x--7----7---|-----6--6--x-6----6----|
|----6--6--x--6----6---|-----4--4--x-4----4----|
|----7--7--x--7----7---|-----6--6--x-6----6----|
|-5--5----------5----5-|--4--4----------4----4-|
|----------------------|-----------------------|
|
| ~~~~~~~~~~~~            ~~
| H       +E    E  E E    H        E    E E  E
|----------------------|-----------------------|
|-7-------(7)---9-10-9-|---------------10-9----|
|-7-------(7)----------|-10-------10--------10-|
|----------------------|-11--------------------|
|----------------------|-----------------------|
|----------------------|-----------------------|
|
| ~~~~~~~~~~~~            ~~
| H       +E    E  E E    H        E    E E  E
|----------------------|-----------------------|
|----------------------|-----------------------|
|----------------------|-----------------------|
|---------------6--7-6-|----------------7-6----|
|-5-------(5)----------|-----------4---------4-|
|----------------------|--9--------------------|


 Interlude
  A5/F#                     E7
  Gtr I
    Q   E.  S S  S E  E E     Q  E. S S S E E E
|-------------------------|---------------------|
|------10--10-x-10---10---|------9--9-x-9---9---|
|-------9---9-x--9----9---|------7--7-x-7---7---|
|-------7---7-x--7----7---|------9--9-x-9---9---|
|---9---9----------9----9-|---7--7--------7---7-|
|-------------------------|---------------------|
|
|   W                         W
|-------------------------|---------------------|
|-------------------------|---------------------|
|-/11---------------------|-/13-----------------|
|-------------------------|---------------------|
|-------------------------|---------------------|
|-------------------------|---------------------|
|
| Gtr II
|   W                         W
|-------------------------|---------------------|
|-------------------------|---------------------|
|-------------------------|---------------------|
|-------------------------|---------------------|
|---5---------------------|---7-----------------|
|-------------------------|---------------------|


                                 To Coda
  F#m/D                 C#7    E7
    Q  E. S S S E E E     H      H
|---------------------|------------------|
|------7--7-x-7---7---|-^-6----^-9-------|
|------6--6-x-6---6---|-^-4----^-7-------|
|------7--7-x-7---7---|-^-6----^-9-------|
|---5--5--------5---5-|-^-4----^-7-------|
|---------------------|------------------|
|
|   W                     H      Q   Q
|---------------------|------------------|
|---------------------|------------------|
|-/14-----------------|-/16----/18-------|
|---------------------|-------------19---|
|---------------------|------------------|
|---------------------|------------------|
|
|   W                     H      Q   Q
|---------------------|------------------|
|---------------------|------------------|
|---------------------|------------------|
|---------------------|------------------|
|---9-----------------|--11-----12-------|
|---------------------|-------------12\--|


  A5/F#                          D/F#
   Q    E  S  S S S E  E   S S     Q    E  S  E  S E E    E
|------------------------------|-----------------------------|
|------10-10-10---7---10---x-x-|-------10-10-10-10---7----7--|
|--7----9--9--9-x-9----9---x-x-|--------7--7--7--7---7----9--|
|-------7--7--7-x-7----7---x-x-|--------7--7--7--7---7---(7)-|
|--9----------------9----------|---9---------------9---------|
|------------------------------|-----------------------------|
|
|  >
|  W                              +W
|------------------------------|-----------------------------|
|------------------------------|-----------------------------|
|------------------------------|-----------------------------|
|------------------------------|-----------------------------|
|-17---------------------------|-(17)------------------------|
|------------------------------|-----------------------------|
|
|  H.                  S S E       H.                S S  E
|------------------------------|-----------------------------|
|------------------------------|-----------------------------|
|------------------------------|-----------------------------|
|----------------------4-5-4---|---------------------4-5--4--|
|--5---------------------------|---5-------------------------|
|------------------------------|-----------------------------|


                                       D.S. al Coda
  A/C#                   D5/B
  Q  E S S S S E E E     Q   E   S S S S E   E  E
|--------------------|-------------------------------|
|--------------------|-------------------------------|
|----9-9-9---7-------|-------7---7-7---6-----6--7----|
|----7-7-7-x-7-----7-|-------7---7-7-x-7-----7-(7)---|
|----7-7-7-x-7---7---|-------5---5-5-x-5-----5-(5)---|
|-9------------9-----|---7---------------7-----------|
|
| W                      W
|--------------------|-------------------------------|
|--------------------|-------------------------------|
|--------------------|-------------------------------|
|--------------------|-------------------------------|
|--------------------|-------------------------------|
|--------------------|-------------------------------|
|
| Q  E H           E   a E E E a Q       S S E  E
|--------------------|-------------------------------|
|--------------------|-------------------------------|
|--------------------|-------------------------------|
|----x-7-------------|-4h5-4-2-2h4-------4h5p4--2----|
|----x---------------|-------------------------------|
|-5----------------5-|-------------------------------|


  &
  A5/F#                       D/F#
   Q   E  S  S S S E  E S S     Q    E  S  E  S E E  E
|---------------------------|---------------------------|
|-----10-10-10---7---10-x-x-|-------10-10-10-10---7--7--|
|--7---9--9--9-x-9----9-x-x-|--------7--7--7--7---7--9--|
|------7--7--7-x-7----7-x-x-|--------7--7--7--7---7-(7)-|
|--9---------------9--------|---9---------------9-------|
|---------------------------|---------------------------|
|
|  >
|  W                           +W
|---------------------------|---------------------------|
|---------------------------|---------------------------|
|---------------------------|---------------------------|
|-12------------------------|-(12)----------------------|
|--5------------------------|--(5)----------------------|
|---------------------------|---------------------------|


  A/C#                 D5/B
  Q  E S S S S E E E   Q           E     S   S   S   S   E     E      E
|--------------------|-------------------------------------------------------|
|--------------------|-------------------------------------------------------|
|----9-9-9---7-------|-------------7-----7---7-------6---------6------7------|
|----7-7-7-x-7-----7-|-------------7-----7---7---x---7---------7-----(7)-----|
|----7-7-7-x-7---7---|-------------5-----5---5---x---5---------5-----(5)-----|
|-9------------9-----|-7---------------------------------7-------------------|
|
| Gtr II
|          <
| H        E   E E E   E     E     E     E       E       E     E      E
|--------------------|-------------------------------------------------------|
|--------------------|-------------------------------------------------------|
|----------7---7-7-7-|-7-----7-----7-----7-------7-------7-----7------7------|
|----------7---7-7-7-|-7-----7-----7-----7-------7-------7-----7------7------|
|----------5---5-5-5-|-5-----5-----5-----5-------5-------5-----5------5------|
|--------------------|-------------------------------------------------------|
|
| Gtr III
|                      |-3-| |-3-| |-3-| |--3--| |--3--| |-3-| |-3-|  |-3-|
| W                    S S S S S S S S S S S   S S S   S S S S S S S  S S S
|--------------------|-------------------------------------------------------|
|--------------------|------------------------------------------------5h7h8--|
|--------------------|-----------------------------------------4h5h7---------|
|--------------------|---------------------------4h5h==7-4h5h7---------------|
|--------------------|-------------3h5h7-3h5h==7-----------------------------|
|--------------------|-3h5h7-3h5h7-------------------------------------------|


 Guitar Solo
  A/E          Esus4/A       D5/E    A                  Dsus2/A
  Gtrs I, II
  Q          E E +Q.   S S   Q     E  E  +Q    E         E
|--------------------------|-----------------------------------|
|-2------------0-(0)---x-x-|-3--------2--(2)---2---------3-----|
|-2------------2-(2)---x-x-|-2--------2--(2)---2---------2-----|
|-2------------2-(2)---x-x-|-2--------2--(2)--(2)-------(2)----|
|------------0-0-(0)-------|-------0--0--(0)--(0)-------(0)----|
|--------------------------|-----------------------------------|
|
| Gtr III
|       ~~~~~~~~~~~~~~~~~             ~~~
|                                              |------3------|
| S   S H.             E     Q.      +Q.       E    +E       E
|-----5-5--------------5---|-9b10----(9)-------9b10-(9)--------|
|-7b9---8b10---------------|--------------------------------10-|
|--------------------------|-----------------------------------|
|--------------------------|-----------------------------------|
|--------------------------|-----------------------------------|
|--------------------------|-----------------------------------|


  C/E     Em/C               G5/E       C             Em7/C  Em/C
    Q   E  E +Q.    S S       Q    E    E  +E   E      E      E
|-----------------------|------------------------------------------|
|---1------0-(0)----x-x-|-----3---------1--(1)--1------3------0----|
|---0------0-(0)----x-x-|-----0---------0--(0)--0------0------0----|
|---2------2-(2)----x-x-|-----2---------2--(2)-(2)----(2)----(2)---|
|-------3--3-(3)--------|----------3----3--(3)-(3)----(3)----(3)---|
|-----------------------|------------------------------------------|
|
|          ~~
|                             |---3---|     |------3-------|
|   Q.     H        E      a  Q  Q    Q     Q       Q      Q
|-----------------------|------------------------------------------|
|---------12------------|-12h13-12---------------------------------|
|-/12--------------12---|------------12----------------------------|
|-----------------------|-----------------/15------14-----12-------|
|-----------------------|------------------------------------------|
|-----------------------|------------------------------------------|


  A/E      Esus4/A         D5/E     A                      Dsus2/C/E
   Q     E  E +Q.    S S    Q     E  E +Q               E   E
|------------------------|-------------------------------------|
|--2--------0-(0)----x-x-|--3--------2-(2)--------------2---3--|
|--2--------2-(2)----x-x-|--2--------2-(2)--------------2---2--|
|--2--------2-(2)----x-x-|--2--------2-(2)-------------(2)-(2)-|
|--------0--0-(0)--------|--------0--0-(0)-------------(0)-(0)-|
|------------------------|-------------------------------------|
|
|           ~~
|  Q.       H        E      Q.       Q      T  T  T  T  E   E
|----------12-------12---|-15b17----12-----12h13p12----12------|
|-10---------------------|--------------------------15-----15--|
|-12b14------------------|-------------------------------------|
|------------------------|-------------------------------------|
|------------------------|-------------------------------------|
|------------------------|-------------------------------------|


         Em/C            G5/E     C            Em7/Em/C
   Q   E  E +Q.    S S    Q     E  E +E   E     E   E
|----------------------|----------------------------------|
|--1------0-(0)----x-x-|--3--------1-(1)--1-----3---0-----|
|--0------0-(0)----x-x-|--0--------0-(0)--0-----0---0-----|
|--2------2-(2)----x-x-|--2--------2-(2)-(2)---(2)-(2)----|
|------3--3-(3)--------|--------3--3-(3)-(3)---(3)-(3)----|
|----------------------|----------------------------------|
|
|  Q.     H        E      E  E  E  Q      S  S  E   S  S
|----------------------|----------------------------------|
|-13-----12------------|----------------------------------|
|-----------------12---|----12-----------------12---------|
|----------------------|-12----12--------12h14-----12h14--|
|----------------------|----------15----------------------|
|----------------------|----------------------------------|


  A/E    Esus4/A         D5/E   A        A      Dsus2/A
   Q   E  E +Q.    S S    Q   E  E  +Q    E      E
|----------------------|-------------------------------------|
|--2------0-(0)----x-x-|--3------2--(2)---2------3-----------|
|--2------2-(2)----x-x-|--2------2--(2)---2------2-----------|
|--2------2-(2)----x-x-|--2------2--(2)--(2)----(2)----------|
|------0--0-(0)--------|------0--0--(0)--(0)----(0)----------|
|----------------------|-------------------------------------|
|
|  Q   E  H        E      Q   E  Q.       S   S  T   T  T  T
|----------------------|-----------------15--14-12--14-12----|
|--------12------------|-15-----14------------------------15-|
|-14-------------------|-------------------------------------|
|-----12----------12---|-----12------------------------------|
|----------------------|-------------------------------------|
|----------------------|-------------------------------------|


  C/E      Em/C               G5/E     C          Em7/Em/C
   Q     E  E +Q.    S S       Q     E  E +E   E   E   E
|------------------------|----------------------------------|
|--1--------0-(0)----x-x-|-----3--------1-(1)--1---3---0----|
|--0--------0-(0)----x-x-|-----0--------0-(0)--0---0---0----|
|--2--------2-(2)----x-x-|-----2--------2-(2)-(2)-(2)-(2)---|
|--------3--3-(3)--------|-----------3--3-(3)-(3)-(3)-(3)---|
|------------------------|----------------------------------|
|
|           ~~
|  Q.       H        E      a  E  E  E  H              S  S
|------------------------|----------------------------------|
|-15b17----15-------12---|-12h13-12----13-------------------|
|------------------------|----------12----------------------|
|------------------------|----------------------------12h14-|
|------------------------|----------------------------------|
|------------------------|----------------------------------|


  A/E    Esus4/A         D5/E   A            A      Dsus2/A
   Q   E  E +Q.    S S    Q   E  E +Q         E      E
|----------------------|-----------------------------------|
|--2------0-(0)----x-x-|--3------2-(2)--------2------3-----|
|--2------2-(2)----x-x-|--2------2-(2)--------2------2-----|
|--2------2-(2)----x-x-|--2------2-(2)-------(2)----(2)----|
|------0--0-(0)--------|------0--0-(0)-------(0)----(0)----|
|----------------------|-----------------------------------|
|
|  Q   E  H        E      Q   E  Q      S  S  S   S  S   S
|----------------------|--------12-----15-14-12--14-15--12-|
|--------12------------|-15--------------------------------|
|-14-------------------|-----------------------------------|
|-----12----------12---|-----12----------------------------|
|----------------------|-----------------------------------|
|----------------------|-----------------------------------|
|
| Gtr I
|  W                      W
|----------------------|-----------------------------------|
|----------------------|-----------------------------------|
|----------------------|-----------------------------------|
|----------------------|-----------------------------------|
|----------------------|-----------------------------------|
|----------------------|-----------------------------------|


  C/E      Em/C               G5/E     C                Em7/Em/C
                              Gtr II
                               >
   Q     E  E    +Q.    S S    Q     E  E      +E    E   E   E
|---------------------------|------------------------------------|
|--1--------0----(0)----x-x-|--3--------1------(1)---1---3---0---|
|--0--------0----(0)----x-x-|--0--------0------(0)---0---0---0---|
|--2--------2----(2)----x-x-|--2--------2------(2)--(2)-(2)-(2)--|
|--------3--3----(3)--------|--------3--3------(3)--(3)-(3)-(3)--|
|---------------------------|------------------------------------|
|
|                                               >
|  ~~~~~                                ~~~~~~~~~~~~
|  Q.       H           E      E  E  E  E      +H
|-15b17----17b19-------19---|-22-19-22-22b24==(22)r--------------|
|---------------------------|------------------------------------|
|---------------------------|------------------------------------|
|---------------------------|------------------------------------|
|---------------------------|------------------------------------|
|---------------------------|------------------------------------|
|
|                              <
|  W                           Q     E  E      +E    E   E   E
|---------------------------|------------------------------------|
|---------------------------|--3--------1------(1)---1---3---0---|
|---------------------------|--0--------0------(0)---0---0---0---|
|---------------------------|--2--------2------(2)--(2)-(2)-(2)--|
|---------------------------|--------3--3------(3)--(3)-(3)-(3)--|
|---------------------------|------------------------------------|


 Outro
  Esus4/A     A             Dsus2/A     A     DsAs2/A
  Gtr I
  E S E S S S E S E S S S   E S E S S S E S S E E
|-----0-----------0-------|-----0-----------0-0-0-|
|-0-0-0-0---0-2-2-2-2---2-|-3-3-3-3---3-2-2-2-3-2-|
|-2-2-2-2-2-2-2-2-2-2-2-2-|-2-2-2-2-2-2-2-2-2-2-2-|
|-2-2-2-2-2-2-2-2-2-2-2-2-|-2-2-2-2-2-2-2-2-2-2-2-|
|-0-0-0-0-0-0-0-0-0-0-0-0-|-0-0-0-0-0-0-0-0-0-0-0-|
|-------------------------|-----------------------|


  Em/A                                  Em/C  Em7/B
  E S E S S S E S E S S S   E S E S S S E S S E S S
|-----0-----------0-------|-----0-----------0-0-0-0-|
|-0-0-0-0---0-0-0-0-0---0-|-0-0-0-0---0-0-0-0-0-0-0-|
|-0-0-0-0-0-0-0-0-0-0-0-0-|-0-0-0-0-0-0-0-0-0-0-0-0-|
|-2-2-2-2-2-2-2-2-2-2-2-2-|-2-2-2-2-2-2-2-2-2-0-0-0-|
|-0-0-0-0-0-0-0-0-0-0-0-0-|-0-0-0-0-0-0-3-3-3-2-2-2-|
|-------------------------|-------------------------|


  Esus4/A      A               Dsus2/A      A       DsAs2/A
  E  S E S S S  E  S E S S S   E  S E S S S E S S   E E
|------0-------------0-------|------0-----------0---0-0-|
|-0--0-0-0---0--2--2-2-2---2-|-3--3-3-3---3-2-2-2---3-2-|
|-2--2-2-2-2-2--2--2-2-2-2-2-|-2--2-2-2-2-2-2-2-2---2-2-|
|-2--2-2-2-2-2--2--2-2-2-2-2-|-2--2-2-2-2-2-2-2-2---2-2-|
|-0--0-0-0-0-0--0--0-0-0-0-0-|-0--0-0-0-0-0-0-0-0---0-0-|
|----------------------------|--------------------------|
|
| Gtr II
| Q.       E   +H              Q.       Q     E   a E E
|----------------------------|--------------------------|
|----------------------------|--------------------------|
|----------6---(6)-----------|----------6---------6h7-6-|
|-7--------------------------|-7--------------7---------|
|----------------------------|--------------------------|
|----------------------------|--------------------------|


  Em/A                                    Em/C   Em7/B
  E S E S S S E S E S S S    E  S E S S S  E S S E S S
|-----0-----------0-------|-------0------------0-0-0-0-|
|-0-0-0-0---0-0-0-0-0---0-|--0--0-0-0---0--0-0-0-0-0-0-|
|-0-0-0-0-0-0-0-0-0-0-0-0-|--0--0-0-0-0-0--0-0-0-0-0-0-|
|-2-2-2-2-2-2-2-2-2-2-2-2-|--2--2-2-2-2-2--2-2-2-0-0-0-|
|-0-0-0-0-0-0-0-0-0-0-0-0-|--0--0-0-0-0-0--3-3-3-2-2-2-|
|-------------------------|----------------------------|
|
| W                         +H             Q     E E
|-------------------------|----------------------------|
|-------------------------|----------------------------|
|-------------------------|----------------------------|
|-------------------------|----------------------------|
|-7-----------------------|-(7)-----------10-----9-7---|
|-------------------------|----------------------------|


    Esus4/A          A                   Dsus2/A          A         DsusA/A
    E    S E   S S S  E    S E   S S S   E    S E   S S S E   S S   E   E
||---------0-----------------0---------|--------0---------------0---0---0----|
||o-0----0-0---0---0--2----2-2---2---2-|-3----3-3---3---3-2---2-2---3---2----|
||--2----2-2---2-2-2--2----2-2---2-2-2-|-2----2-2---2-2-2-2---2-2---2---2----|
||--2----2-2---2-2-2--2----2-2---2-2-2-|-2----2-2---2-2-2-2---2-2---2---2----|
||o-0----0-0---0-0-0--0----0-0---0-0-0-|-0----0-0---0-0-0-0---0-0---0---0----|
||-------------------------------------|-------------------------------------|
|
|   Q.           E   +H                  Q.           Q       E   a E   E
||-------------------------------------|-------------------------------------|
||o------------------------------------|-------------------------------------|
||---------------6---(6)---------------|--------------6-----------6h7---6----|
||--7----------------------------------|-7--------------------7--------------|
||o------------------------------------|-------------------------------------|
||-------------------------------------|-------------------------------------|
|
|   Gtr VI
|   S  S S S S S S S  S  S S S S S S S   S  S S S S S S S S S S S   S S S S
||--0------0-----0----0------0-----0---|-0------0-----0---0-----0------------|
||o----0-----0-----0-----2-----2-----2-|----3-----3-----3---2-------3---2----|
||-------2-----2-----------2-----2-----|------2-----2---------2-------2---2--|
||-------------------------------------|-------------------------------------|
||o------------------------------------|-------------------------------------|
||-------------------------------------|-------------------------------------|


  Em/A                                                Em/C     Em7/B
  E   S E   S S S E   S E   S S S    E    S E   S S S  E   S S E   S S
|-------0---------------0---------|---------0----------------0-0---0-0--||
|-0---0-0---0---0-0---0-0---0---0-|--0----0-0---0---0--0---0-0-0---0-0-o||
|-0---0-0---0-0-0-0---0-0---0-0-0-|--0----0-0---0-0-0--0---0-0-0---0-0--||
|-2---2-2---2-2-2-2---2-2---2-2-2-|--2----2-2---2-2-2--2---2-2-0---0-0--||
|-0---0-0---0-0-0-0---0-0---0-0-0-|--0----0-0---0-0-0--3---3-3-2---2-2-o||
|---------------------------------|-------------------------------------||
|
| W                                 +H                 Q       E   E
|---------------------------------|-------------------------------------||
|---------------------------------|------------------------------------o||
|---------------------------------|-------------------------------------||
|---------------------------------|-------------------------------------||
|-7-------------------------------|-(7)---------------10-------9---7---o||
|---------------------------------|-------------------------------------||
|
| S S S S S S S S S S S S S S S S    S  S S S S S S S  S S S S S S S S
|-0-----0-----0---0-----0-----0---|--0------0-----0----0-----0----------||
|---0-----0-----0---0-----0-----0-|-----0-----0-----0----0-----3---0---o||
|-----0-----0---------0-----0-----|-------0-----0----------0-----0---0--||
|---------------------------------|-------------------------------------||
|---------------------------------|------------------------------------o||
|---------------------------------|-------------------------------------||


    Esus4/A          A                   Dsus2/A          A         DsusA/A
    E    S E   S S S  E    S E   S S S   E    S E   S S S E   S S   E   E
||---------0-----------------0---------|--------0---------------0---0---0----|
||o-0----0-0---0---0--2----2-2---2---2-|-3----3-3---3---3-2---2-2---3---2----|
||--2----2-2---2-2-2--2----2-2---2-2-2-|-2----2-2---2-2-2-2---2-2---2---2----|
||--2----2-2---2-2-2--2----2-2---2-2-2-|-2----2-2---2-2-2-2---2-2---2---2----|
||o-0----0-0---0-0-0--0----0-0---0-0-0-|-0----0-0---0-0-0-0---0-0---0---0----|
||-------------------------------------|-------------------------------------|
|
|   Q.           E   +H                  Q.           Q       E   a E   E
||-------------------------------------|-------------------------------------|
||o-0------------2---(2)---------------|-0------------2-----------2h3---2----|
||--2------------2---(2)---------------|-2------------2-------2--------------|
||-------------------------------------|-------------------------------------|
||o------------------------------------|-------------------------------------|
||-------------------------------------|-------------------------------------|
|
|   S  S S S S S S S  S  S S S S S S S   S  S S S S S S S S S S S   S S S S
||--0------0-----0----0------0-----0---|-0------0-----0---0-----0------------|
||o----0-----0-----0-----2-----2-----2-|----3-----3-----3---2-------3---2----|
||-------2-----2-----------2-----2-----|------2-----2---------2-------2---2--|
||-------------------------------------|-------------------------------------|
||o------------------------------------|-------------------------------------|
||-------------------------------------|-------------------------------------|


  Em/A                                                Em/C     Em7/B
  E   S E   S S S E   S E   S S S    E    S E   S S S  E   S S E   S S
|-------0---------------0---------|---------0----------------0-0---0-0--||
|-0---0-0---0---0-0---0-0---0---0-|--0----0-0---0---0--0---0-0-0---0-0-o||
|-0---0-0---0-0-0-0---0-0---0-0-0-|--0----0-0---0-0-0--0---0-0-0---0-0--||
|-2---2-2---2-2-2-2---2-2---2-2-2-|--2----2-2---2-2-2--2---2-2-0---0-0--||
|-0---0-0---0-0-0-0---0-0---0-0-0-|--0----0-0---0-0-0--3---3-3-2---2-2-o||
|---------------------------------|-------------------------------------||
|
| W                                 +H                 Q       E   E
|---------------------------------|-------------------------------------||
|---------------------------------|------------------------------------o||
|-0-------------------------------|-(0)---------------------------------||
|-2-------------------------------|-(2)---------------------------------||
|---------------------------------|-------------------10-------9---7---o||
|---------------------------------|--------------------8-------7---5----||
|
| S S S S S S S S S S S S S S S S    S  S S S S S S S  S S S S S S S S
|-0-----0-----0---0-----0-----0---|--0------0-----0----0-----0----------||
|---0-----0-----0---0-----0-----0-|-----0-----0-----0----0-----3---0---o||
|-----0-----0---------0-----0-----|-------0-----0----------0-----0---0--||
|---------------------------------|-------------------------------------||
|---------------------------------|------------------------------------o||
|---------------------------------|-------------------------------------||


Duration Legend
---------------
W - whole; H - half; Q - quarter; E - 8th; S - 16th; T - 32nd; X - 64th; a - acciaccatura
+ - note tied to previous; . - note dotted; .. - note double dotted
Uncapitalized letters represent notes that are staccato (1/2 duration)
Irregular groupings are notated above the duration line
Duration letters will always appear directly above the note/fret number it represents the
duration for.  Duration letters with no fret number below them represent rests.  Multi-
bar rests are notated in the form Wxn, where n is the number of bars to rest for.  Low
melody durations appear below the staff

Tablature Legend
----------------
 h   - hammer-on
 p   - pull-off
 b   - bend
 pb  - pre-bend
 r   - bend release (if no number after the r, then release immediately)
 /\  - slide into or out of (from/to "nowhere")
 s   - legato slide
 S   - shift slide
  - natural harmonic
[n]  - artificial harmonic
n(n) - tapped harmonic
 ~   - vibrato
 tr  - trill
 T   - tap
 TP  - trem. picking
 PM  - palm muting
\n/  - tremolo bar dip; n = amount to dip
 \n  - tremolo bar down
 n/  - tremolo bar up
/n\  - tremolo bar inverted dip
 =   - hold bend; also acts as connecting device for hammers/pulls
 <>  - volume swell (louder/softer)
 x   - on rhythm slash represents muted slash
 o   - on rhythm slash represents single note slash

Misc Legend
-----------
 |  - bar
||  - double bar
||o - repeat start
o|| - repeat end
*|  - double bar (ending)
 :  - bar (freetime)
 $  - Segno
 &  - Coda
Tempo markers -  = BPM(8/16=s8/s16), where s8 = swing 8ths, s16 = swing 16ths


***************************************************************************************
***************************************************************************************





Comments


Popular Quinn Peck tabs & chords
Out In The Cold Bass Tabs
Wonderful Week Bass Tabs
Apparent Mood Tabs
Buy Yourself Tabs
Going Down Tabs
Out In The Cold Tabs
Shifting Time Tabs
The Girl I Love Tabs
The Midnight Sun Tabs
Walking Alone Tabs


Song lyrics



↑ Back to top | Tablatures and chords are parodies/interpretations of the original songs. You may use it for private study, scholarship, research or language learning purposes only
© 2014 AZChords.com Contact us | Privacy policy | DMCA | Add/correct tabs | Request tabs | Top 50 tabs