>
 >
Apparent Mood

Apparent Mood Guitar Tabs

Quinn Peck - Apparent Mood chords, tabs, tablatures, lyrics

Guitar lessons | Add/correct | Request | Top 50 tabs Artists:  A B C D E F G H I J K L M N O P Q R S T U V W X Y Z 0-9

Apparent Mood Guitar Tabs – Quinn Peck

CD, Sheet music, Poster

Do you like Apparent Mood? Share with your friends now
Tabs
#------------------------------------------------------------------------------##

                                  APPARENT MOOD
                            As recorded by Quinn Peck

Music by Quinn Peck
Arranged by Quinn Peck

Gtr I (E A D G B E) - 'Untitled'
Gtr II (E A D G B E) - 'Untitled'
Gtr III (E A D G B E) - 'Untitled'
Gtr IV (E A D G B E) - 'Untitled'

 Intro
  Q=100
  Em                Em7/C            G                 G/B
 4/4
  Gtr I
  E E E E E E E E   E E E Q.   E E   E E E E E E E E   E E E Q.   E E
|-------0-3-------|-------3--------|---------3-------|--------------0--|
|-----0-----0-----|-----3--------3-|-------3---3-----|-------0----3----|
|---0---------0---|------------0---|-----------------|-----0-----------|
|-2-------------2-|---2------------|-----0-----------|---0-------------|
|-----------------|-3--------------|---2---------0-1-|-2---------------|
|-----------------|----------------|-3---------------|-----------------|


  Em               Em7/C              G                 G/B
  E E E Q  E E E   E E E Q.   E S S   E E E E E E E E   E E E Q.   E E
|-------3--------|-------3----3-x-3-|---------3-------|--------------0--|
|-----0----0-----|-----3-3----3-x-3-|-------3---3-----|-------0----3----|
|---0--------0---|------------0-x-x-|-----------------|-----0-----------|
|-2------------2-|---2--------------|-----0-----------|---0-------------|
|----------------|-3----------------|---2---------0-1-|-2---------------|
|----------------|------------------|-3---------------|-----------------|
|
| Gtr II
| W                W                  W                 W
|-3--------------|-3----------------|-3---------------|-7---------------|
|-0--------------|-3----------------|-3---------------|-3---------------|
|-0--------------|-0----------------|-0---------------|-4---------------|
|-2--------------|------------------|-----------------|-5---------------|
|----------------|-3----------------|-2---------------|-----------------|
|----------------|------------------|-----------------|-----------------|


  Em                          Em7/C                     G
  Gtr I
  E  E E E  E   E   E   E     E  E E Q.         E   E
|--------0--3---------------|--------3------------------|
|------0--------0-----------|------3----------------3---|
|----0--------------0-------|-------------------0-------|
|-2---------------------2---|----2----------------------|
|---------------------------|-3-------------------------|
|---------------------------|---------------------------|
|
| E  E E E  S S S S S S S S   E  E E E  S S S S S S S S
|--------0--3-----3-----3---|--------3--3-----3-----3---|
|------0------0-----0-----0-|------3------3-----3-----3-|
|----0----------0-----0-----|---------------0-----0-----|
|-2------5----------2---5---|----2---5--------------5---|
|---------------------------|-3-----------------3-------|
|---------------------------|---------------------------|
  Q.     Q.         E   E     Q.     Q.         E   E


                              G/B
  E  E E E  E   E   E   E     E  E E Q.         E   E
|-----------3---------------|-----------------------0------|
|--------3------3-----------|--------0----------3----------|
|---------------------------|------0-----------------------|
|------0--------------------|----0-------------------------|
|----2--------------0---1---|-2----------------------------|
|-3-------------------------|------------------------------|
|
| E  E E E  S S S S S S S S   E  E E E  S S S S S S S S
|-----------3-----3-----3---|-----------0-----0-----0------|
|--------3----3-----3-----3-|--------0----3-0---3-0---3----|
|---------------0-----0-----|------0----------------0------|
|------0-5------------------|----0---0----------0-2---0----|
|----2--------------0---1---|-2----------------------------|
|-3-------------------------|------------------------------|
  Q.     Q.         E   E     Q.     Q.         S S S S


  Em                          Em7/C
  E  E E Q      E   E   E     E  E E Q.         E   S S
|--------3------------------|--------3----------3---x-3-|
|------0--------0-----------|------3------------3---x-3-|
|----0--------------0-------|-------------------0---x-x-|
|-2---------------------2---|----2----------------------|
|---------------------------|-3-------------------------|
|---------------------------|---------------------------|
|
| E  E E E  S S S S S S S S   E  E E E  S S S S S S S S
|--------0--3-----3-----3---|--------3--3-----3-----3---|
|------0------0-----0-----0-|------3------3-----3-----3-|
|----0----------0-----0-----|---------------0-----0-----|
|-2------5----------2---5---|----2---5--------------5---|
|---------------------------|-3-----------------3-------|
|---------------------------|---------------------------|
  Q.     Q.         E   E     Q.     Q.         E   E


  G                           G/B
  E  E E E  E   E   E   E     E  E E Q.         E   E
|-----------3---------------|-----------------------0------|
|--------3------3-----------|--------0----------3----------|
|---------------------------|------0-----------------------|
|------0--------------------|----0-------------------------|
|----2--------------0---1---|-2----------------------------|
|-3-------------------------|------------------------------|
|
| E  E E E  S S S S S S S S   E  E E E  S S S S S S S S
|-----------3-----3-----3---|-----------0-----0-----0------|
|--------3----3-----3-----3-|--------0----3-0---3-0---3----|
|---------------0-----0-----|------0----------------0------|
|------0-5------------------|----0---0----------0-2---0----|
|----2--------------0---1---|-2----------------------------|
|-3-------------------------|------------------------------|
  Q.     Q.         E   E     Q.     Q.         S S S S


 Verse
  Em                                  Em7/C
   E  E E E  E   E    E      E         E  E E Q.          E      E
|---------0--3----------------------|---------3-------------------------|
|-------0--------0------------------|-------3--------------------3------|
|-----0---------------0-------------|---------------------0-------------|
|--2-------------------------2------|-----2-----------------------------|
|-----------------------------------|--3--------------------------------|
|-----------------------------------|-----------------------------------|
|
|  E  E E E  S S S S  S S    S    S    E  E E E  S S S S  S S    S    S
|---------0--3-----3---------3------|---------3--3-----3---------3------|
|-------0------0------0-----------0-|-------3------3------3-----------3-|
|-----0----------0------0-----------|----------------0------0-----------|
|--2------5-----------2------5------|-----2---5------------------5------|
|-----------------------------------|--3------------------3-------------|
|-----------------------------------|-----------------------------------|
|  Q.     Q.          E      E         Q.     Q.          E      E
|
| Gtr III
|  ~~~                                 ~~~
|                     |----3----|                         |----3----|
|  H.                 E    E    E      H.                 E    E    E
|-----------------------------------|-----------------------------------|
|-----------------------------------|-----------------------------------|
|--------------------11---12--------|--------------------11---12--------|
|-14---------------------------12---|-14---------------------------12---|
|-----------------------------------|-----------------------------------|
|-----------------------------------|-----------------------------------|


  G                              G/B
   E  E E  E  E   E   E    E      E    E E   Q.                 E          E
|-------------3----------------|-------------------------------------------0------------|
|----------3------3------------|-------------0------------------3-----------------------|
|------------------------------|---------0----------------------------------------------|
|-------0----------------------|-------0------------------------------------------------|
|-----2---------------0----1---|--2-----------------------------------------------------|
|--3---------------------------|--------------------------------------------------------|
|
|  E  E E  E  S S S S S S  S S    E    E E   E  S S  S    S     S    S     S    S
|-------------3-----3------3---|----------------0---------0----------------0------------|
|----------3----3-----3------3-|-------------0----3--0----------3----0----------3-------|
|-----------------0-----0------|---------0---------------------------------0------------|
|-------0--5-------------------|-------0-----0------------------0----2----------0-------|
|-----2---------------0----1---|--2-----------------------------------------------------|
|--3---------------------------|--------------------------------------------------------|
|  Q.      Q.         E    E      Q.         Q.                 S    S     S    S
|
|  ~~~
|                                                    |--------------3--------------|
|  Q.      H               E      Q.        +Q       S  S    S  S  S    S  S  S    S
|------------------------------|------------------------------------------12------------|
|------------------------------|--------------------12---------15-12---------15---12----|
|-------------------------12---|-14b16-----(14)--------14---12---------14---------------|
|-14------12-------------------|--------------------------------------------------------|
|------------------------------|--------------------------------------------------------|
|------------------------------|--------------------------------------------------------|


  Em                                    Em7/C
   E    E E Q      E    E      E         E    E E Q.          E      S    S
|-----------3-------------------------|-----------3-----------3------x----3-|
|---------0--------0------------------|---------3-------------3------x----3-|
|-------0---------------0-------------|-----------------------0------x----x-|
|--2---------------------------2------|-------2-----------------------------|
|-------------------------------------|--3----------------------------------|
|-------------------------------------|-------------------------------------|
|
|  E    E E E  S S S S  S S    S    S    E    E E E  S S S S  S S    S    S
|-----------0--3-----3---------3------|-----------3--3-----3---------3------|
|---------0------0------0-----------0-|---------3------3------3-----------3-|
|-------0----------0------0-----------|------------------0------0-----------|
|--2--------5-----------2------5------|-------2---5------------------5------|
|-------------------------------------|--3--------------------3-------------|
|-------------------------------------|-------------------------------------|
|  Q.       Q.          E      E         Q.       Q.          E      E
|
|                       |----3----|                           |----3----|
|  H.                   E    E    E      H.                   E    E    E
|-12-------------------14---15--------|-12-------------------14---15--------|
|-15b17--------------------------15---|-15b17--------------------------15---|
|-------------------------------------|-------------------------------------|
|-------------------------------------|-------------------------------------|
|-------------------------------------|-------------------------------------|
|-------------------------------------|-------------------------------------|


  G                                 G/B
   E    E E   E  E   E   E    E      E    E     E    Q.                    E     E
|----------------3----------------|----------------------------------------------3-------|
|-------------3------3------------|------------------0---------------------3-------------|
|---------------------------------|-------------0----------------------------------------|
|---------0-----------------------|-------0----------------------------------------------|
|-------2----------------0----1---|--2---------------------------------------------------|
|--3------------------------------|------------------------------------------------------|
|
|  E    E E   E  S S S S S S  S S    E    E     E    E      S S    S    S  S  S  S  S
|----------------3-----3------3---|-------------------------3----------------------------|
|-------------3----3-----3------3-|------------------0--------3---------------------3----|
|--------------------0-----0------|-------------0------------------0-------------0-------|
|---------0---5-------------------|-------0-----------------------------0-----0----------|
|-------2----------------0----1---|--2-------------------------------------2-------------|
|--3------------------------------|------------------------------------------------------|
|  Q.         Q.         E    E
|
|                                    |---3---|  |---3----|  |----3----|
|  Q.        +H               E      E  E    E  E  E     E  E    E    E    S  S  S  S
|----------------------------15---|-17-15---14-15-14----12-14---12--------12-------------|
|-15b17-----(15)------------------|----------------------------------15------15-12-------|
|---------------------------------|------------------------------------------------12----|
|---------------------------------|------------------------------------------------------|
|---------------------------------|------------------------------------------------------|
|---------------------------------|------------------------------------------------------|


 Chorus
  Am                        C              G               Em
      Q        E    S S S S E   E    E     Q   E   S S S S E E       E
|---------------------0-x-0-0---0----0---|-----------3-x-0-0---------0---|
|-----1--------1----1-1-x-1-1---1----1---|-----3---3-3-x-0-0-0-------0---|
|-----2--------2----2-2-x-0-0---0----0---|-0---0---0-0-x-0-0-0-------0---|
|-----2--------2----2-2-x-2-2---2----2---|-0---0---0-0-x-0-2-2-------2---|
|-----0--------0----0-0-x-0-3---3----3---|-2---2---2-2-x---2-2-------2---|
|----------------------------------------|-3---3---3-3-x---0-0-------0---|
|
|     E   E    S  S S S E   E   S  S E     E E S S S S E   E S    S  S S
|--------------0----------------0--------|-----3-----------------------0-|
|-----------------1---1------------1-----|-------3-------------------0---|
|-------------------2----------------0---|---------0--------------2------|
|---------2-----------------2------------|-----------0-------2-----------|
|-----0-----------------3----------------|---2-------------2-------------|
|----------------------------------------|-3-----------0-----------------|
|
|     |--3--|
| a a E E   E +H              a E.     S   E H             E S   +S  E
|-----8-7---5-(5)------------------------|-------------------------------|
|---x------------------------------------|---8-------------8-------------|
|-x---------------------------5h7------5-|-7-----------------7b9r(7)-5---|
|----------------------------------------|-------------------------------|
|----------------------------------------|-------------------------------|
|----------------------------------------|-------------------------------|


       Am                   C             G                Em
        Q    E   S S  S   S E E       E   Q    E   S S S S  E    E    E
|------------------0--x---0-0-0-------0-|------------3-x-0--0-----------------|
|-------1----1---1-1--x---1-1-1-------1-|------3---3-3-x-0--0----0----0-------|
|-------2----2---2-2--x---0-0-0-------0-|-0----0---0-0-x-0--0----0----0-------|
|-------2----2---2-2--x---2-2-2-------2-|-0----0---0-0-x-0--2----2----2-------|
|-------0----0---0-0--x---0-3-3-------3-|-2----2---2-2-x----2----2----2-------|
|---------------------------------------|-3----3---3-3-x----0----0----0-------|
|
|       E  E S S S S  E     E S    S  E   E  E S S S S E    E    S S  S  S
|------------0----------------0---------|------3-------------------------0----|
|--------------1---1---------------1----|--------3--------------------0-------|
|----------------2--------------------0-|----------0---------------2----------|
|----------2----------------2-----------|------------0-----------2------------|
|-------0-------------3-----------------|----2--------------2-----------------|
|---------------------------------------|-3------------0----------------------|
|
|       ~~~~~~~~~~~~~~~~~~                ~~
| a    +H            +E     E S   +S  E   Q.       S S S S +S  S S S +S  S
|---------------------------------------|-------------------------------------|
|---------------------------8-----------|-------------------------------------|
|-7b9==(7)-----------(7)r-----7b9r(7)-5-|-4--------4-4-4s2-(2)-2-2p0-(0)-0----|
|---------------------------------------|-------------------------------------|
|---------------------------------------|-------------------------------------|
|---------------------------------------|-------------------------------------|


  Am                        C              G               Em
      Q        E    S S S S E   E    E     Q   E   S S S S E E       E
|---------------------0-x-0-0---0----0---|-----------3-x-0-0---------0---|
|-----1--------1----1-1-x-1-1---1----1---|-----3---3-3-x-0-0-0-------0---|
|-----2--------2----2-2-x-0-0---0----0---|-0---0---0-0-x-0-0-0-------0---|
|-----2--------2----2-2-x-2-2---2----2---|-0---0---0-0-x-0-2-2-------2---|
|-----0--------0----0-0-x-0-3---3----3---|-2---2---2-2-x---2-2-------2---|
|----------------------------------------|-3---3---3-3-x---0-0-------0---|
|
|     E   E    S  S S S E   E   S  S E     E E S S S S E   E S    S  S S
|--------------0----------------0--------|-----3-----------------------0-|
|-----------------1---1------------1-----|-------3-------------------0---|
|-------------------2----------------0---|---------0--------------2------|
|---------2-----------------2------------|-----------0-------2-----------|
|-----0-----------------3----------------|---2-------------2-------------|
|----------------------------------------|-3-----------0-----------------|
|
|     |--3--|
| a a E E   E +H              a E.     S   E H             E S   +S  E
|-----8-7---5-(5)------------------------|-------------------------------|
|---x------------------------------------|---8-------------8-------------|
|-x---------------------------5h7------5-|-7-----------------7b9r(7)-5---|
|----------------------------------------|-------------------------------|
|----------------------------------------|-------------------------------|
|----------------------------------------|-------------------------------|


       Am                   C             G                    Em
        Q    E   S S  S   S E E       E   Q    E   S   S   S S E     E   E
|------------------0--x---0-0-0-------0-|--------------3---x-0-0--------------|
|-------1----1---1-1--x---1-1-1-------1-|------3---3---3---x-0-0-----0---0----|
|-------2----2---2-2--x---0-0-0-------0-|-0----0---0---0---x-0-0-----0---0----|
|-------2----2---2-2--x---2-2-2-------2-|-0----0---0---0---x-0-2-----2---2----|
|-------0----0---0-0--x---0-3-3-------3-|-2----2---2---2---x---2-----2---2----|
|---------------------------------------|-3----3---3---3---x---0-----0---0----|
|
|       E  E S S S S  E     E S    S  E   E  E S S S   S   E   E     S S S S
|------------0----------------0---------|------3---------------------------0--|
|--------------1---1---------------1----|--------3-----------------------0----|
|----------------2--------------------0-|----------0-------------------2------|
|----------2----------------2-----------|--------------0-------------2--------|
|-------0-------------3-----------------|----2-----------------2--------------|
|---------------------------------------|-3----------------0------------------|
|
|       ~~~~~~~~~~~~~~~~~~                ~~
|                                                  |--3--|     |-3-|
| a    +H            +E     E S   +S  E   Q.       S S   S E   S S S Q
|---------------------------------------|-------------------------------------|
|---------------------------8-----------|-------------------------------------|
|-7b9==(7)-----------(7)r-----7b9r(7)-5-|-4--------4h5p==4s2---2h4p2p0--------|
|---------------------------------------|-------------------------------------|
|---------------------------------------|-------------------------------------|
|---------------------------------------|-------------------------------------|


 Pre-Verse
  Am                                C
  S S S S S S S S S S S S S S S S   S S S S S S S S S S S S S S S S
|---------0-------3-----0---------|---------0-------3-----0---------|
|-------1---1-------1-----1---1---|-------1---1-------1-----1---1---|
|-----2-------2-------2-----2---2-|-----0-------0-------0-----0---0-|
|---2-----------2-----------------|---2-----------2-----------------|
|-0-------------------------------|-3-------------------------------|
|---------------------------------|---------------------------------|
|
| >
| W                                 W
|---------------------------------|---------------------------------|
|-1-------------------------------|---------------------------------|
|-2-------------------------------|---------------------------------|
|-2-------------------------------|---------------------------------|
|-0-------------------------------|---------------------------------|
|---------------------------------|---------------------------------|
|
| >
| W                                 W
|---------------------------------|---------------------------------|
|---------------------------------|---------------------------------|
|-2-------------------------------|---------------------------------|
|---------------------------------|---------------------------------|
|---------------------------------|---------------------------------|
|---------------------------------|---------------------------------|


  G                                 Em              F
  S S S S S S S S S S S S S S S S   S S S S S S S S S S S S S S S S
|---------3-------3-----0---------|------------------------------------|
|-------0---0-------0-----0---0---|---------0---------------1----------|
|-------------0-------0-----0---0-|-------0---0---0-------2---2---2----|
|-----0---------0-----------------|-----2-------2-------3-------3------|
|---2-----------------------------|---2---------------3----------------|
|-3-------------------------------|-0---------------1------------------|
|
| W                                 W
|---------------------------------|------------------------------------|
|---------------------------------|------------------------------------|
|---------------------------------|------------------------------------|
|---------------------------------|------------------------------------|
|---------------------------------|------------------------------------|
|---------------------------------|------------------------------------|
|
| W                                 W
|---------------------------------|------------------------------------|
|---------------------------------|------------------------------------|
|---------------------------------|------------------------------------|
|---------------------------------|------------------------------------|
|---------------------------------|------------------------------------|
|---------------------------------|------------------------------------|


  Am                                 C
  S S S S S S S S S  S S S S S S S   S S S S S S S S S  S S S S S S S
|---------0-------3------0---------|---------0-------3------0---------|
|-------1---1--------1-----1---1---|-------1---1--------1-----1---1---|
|-----2-------2--------2-----2---2-|-----0-------0--------0-----0---0-|
|---2-----------2------------------|---2-----------2------------------|
|-0--------------------------------|-3--------------------------------|
|----------------------------------|----------------------------------|
|
| Q       Q       Q.           E     Q       Q       Q.           E
|-----------------3------------0---|-----------------3------------0---|
|-----------------1------------1---|-----------------1------------1---|
|-2-------2-------2------------2---|-0-------0-------0------------0---|
|-2-------2------------------------|-2-------2------------------------|
|-0-------0------------------------|-3-------3------------------------|
|----------------------------------|----------------------------------|
|
| W                                  W
|----------------------------------|----------------------------------|
|----------------------------------|----------------------------------|
|----------------------------------|----------------------------------|
|----------------------------------|----------------------------------|
|----------------------------------|----------------------------------|
|----------------------------------|----------------------------------|


  G                                  Em              F
  S S S S S S S S S  S S S S S S S   S S S S S S S S  S S  S S  S S  S S
|---------3-------3------0---------|----------------------------------------|
|-------0---0--------0-----0---0---|---------0------------------1-----------|
|-------------0--------0-----0---0-|-------0---0---0---------2----2----2----|
|-----0---------0------------------|-----2-------2---------3---------3------|
|---2------------------------------|---2----------------3-------------------|
|-3--------------------------------|-0----------------1---------------------|
|
| Q       Q       Q.           E     Q       Q        Q         Q
|-----------------3------------0---|----------------------------------------|
|-----------------0------------0---|---------0------------------1-----------|
|-----------------0------------0---|---------0------------------2-----------|
|-0-------0------------------------|-2-------2--------3---------3-----------|
|-2-------2------------------------|-2----------------3---------------------|
|-3-------3------------------------|-0----------------1---------------------|
|
| W                                  H                E    E    E    E
|----------------------------------|----------------------------------------|
|----------------------------------|----------------------12---13---15------|
|----------------------------------|-----------------14---------------------|
|----------------------------------|----------------------------------------|
|----------------------------------|----------------------------------------|
|----------------------------------|----------------------------------------|


 Verse
  Am
   S S S    S S S    S S  S  S S    S S S    S S
|-------------0-----------3---------0------------|
|-----------1---1------------1--------1------1---|
|------2-------------2---------2--------2------2-|
|----2-----------------2-------------------------|
|--0---------------------------------------------|
|------------------------------------------------|
|
|  Q          Q           Q.                 E
|-------------------------3------------------0---|
|-------------------------1------------------1---|
|--2----------2-----------2------------------2---|
|--2----------2----------------------------------|
|--0----------0----------------------------------|
|------------------------------------------------|
|
|  ~~~~~~~~~~~~~~~~~~~~~~~~~~~~~~~~~~~~~~~~~~~~~~~
|  |-------3-------|      |-------3--------|
|  Q      Q        Q      Q       Q        Q
|------------------------------------------------|
|-17-----15-------13-----15------13-------12-----|
|------------------------------------------------|
|------------------------------------------------|
|------------------------------------------------|
|------------------------------------------------|


  C
   S S S    S S S    S S  S  S  S S  S S  S S
|-------------0-----------3-------0-----------|
|-----------1---1------------1-------1----1---|
|------0-------------0----------0------0----0-|
|----2-----------------2----------------------|
|--3------------------------------------------|
|---------------------------------------------|
|
|  Q          Q           Q.              E
|-------------------------3---------------0---|
|-------------------------1---------------1---|
|--0----------0-----------0---------------0---|
|--2----------2-------------------------------|
|--3----------3-------------------------------|
|---------------------------------------------|
|
|~~~~~~~~~~~~~~~~~~~~
|  |-------3-------|
|  Q      Q        Q      E     E    E    E
|---------------------------------------------|
|-13-----12--------------12-------------------|
|-----------------14-----------12--------12---|
|-----------------------------------14--------|
|---------------------------------------------|
|---------------------------------------------|


  G
   S  S S S S S S S S  S S S   S  S  S  S
|-----------3-------3------0--------------|
|---------0---0--------0-------0-----0----|
|---------------0--------0--------0-----0-|
|-------0---------0-----------------------|
|-----2-----------------------------------|
|--3--------------------------------------|
|
|  Q        Q       Q.               E
|-------------------3----------------0----|
|-------------------0----------------0----|
|-------------------0----------------0----|
|--0--------0-----------------------------|
|--2--------2-----------------------------|
|--3--------3-----------------------------|
|
|  ~~~~~~~~~~~~~~~~~~~~~~~~~~~~~~~
|  H.                         +E     S  S
|-----------------------------------------|
|-12-------------------------(12)---13-12-|
|-12-------------------------(12)---------|
|-----------------------------------------|
|-----------------------------------------|
|-----------------------------------------|


  Em                  F
   S  S S S S S  S  S  S S    S    S  S S    S    S
|---------------------------------------------------|
|-----------0-------------------------1-------------|
|---------0---0-----0--------------2----2---------2-|
|-------2--------2------------3--------------3------|
|-----2------------------3--------------------------|
|--0-------------------1----------------------------|
|
|  Q        Q          Q              Q
|---------------------------------------------------|
|-----------0-------------------------1-------------|
|-----------0-------------------------2-------------|
|--2--------2----------3--------------3-------------|
|--2-------------------3----------------------------|
|--0-------------------1----------------------------|
|
|  ~~~                 ~~
|                      |----3----|    |----3----|
|  Q.            S  S  E    E    E    E    E    E
|---------------------------------------------------|
|---------------13-12------12---13---15---13---12---|
|-12------------------14----------------------------|
|---------------------------------------------------|
|---------------------------------------------------|
|---------------------------------------------------|


  Am
   S S S    S S S    S S  S  S S    S S S    S S
|-------------0-----------3---------0------------|
|-----------1---1------------1--------1------1---|
|------2-------------2---------2--------2------2-|
|----2-----------------2-------------------------|
|--0---------------------------------------------|
|------------------------------------------------|
|
|  Q          Q           Q.                 E
|-------------------------3------------------0---|
|-------------------------1------------------1---|
|--2----------2-----------2------------------2---|
|--2----------2----------------------------------|
|--0----------0----------------------------------|
|------------------------------------------------|
|
|  ~~~~~~~~~~~~~~~~~~~~~~~~~~~~~~~~~~~~~~~~~~~~~~~
|  |-------3-------|      |-------3--------|
|  Q      Q        Q      Q       Q        Q
|-15-----13-------12-----13------12-------10-----|
|------------------------------------------------|
|-12-----10--------9-----10-------9--------7-----|
|------------------------------------------------|
|------------------------------------------------|
|------------------------------------------------|


  C
   S S S    S S S    S S  S  S  S S  S S  S S
|-------------0-----------3-------0-----------|
|-----------1---1------------1-------1----1---|
|------0-------------0----------0------0----0-|
|----2-----------------2----------------------|
|--3------------------------------------------|
|---------------------------------------------|
|
|  Q          Q           Q.              E
|-------------------------3---------------0---|
|-------------------------1---------------1---|
|--0----------0-----------0---------------0---|
|--2----------2-------------------------------|
|--3----------3-------------------------------|
|---------------------------------------------|
|
|~~~~~~~~~~~~~~~~~~~~
|  |-------3-------|
|  Q      Q        Q      E     E    E    E
|-12-----10--------------10-------------------|
|-----------------13-----------12--------12---|
|--9------7---------------7---------12--------|
|-----------------10------------9---------9---|
|-----------------------------------10--------|
|---------------------------------------------|


  G
   S  S S S S S S S S  S S S   S  S  S  S
|-----------3-------3------0--------------|
|---------0---0--------0-------0-----0----|
|---------------0--------0--------0-----0-|
|-------0---------0-----------------------|
|-----2-----------------------------------|
|--3--------------------------------------|
|
|  Q        Q       Q.               E
|-------------------3----------------0----|
|-------------------0----------------0----|
|-------------------0----------------0----|
|--0--------0-----------------------------|
|--2--------2-----------------------------|
|--3--------3-----------------------------|
|
|  ~~~
|  H.                         +E     S  S
|-----------------------------------------|
|-12-------------------------(12)---13-12-|
|-12-------------------------(12)---------|
|-----------------------------------------|
|-----------------------------------------|
|-----------------------------------12-15-|


  Em                  F
   S  S S S S S  S  S  S S S S  S S  S S
|----------------------------------------|
|-----------0-------------------1--------|
|---------0---0-----0--------2----2----2-|
|-------2--------2---------3---------3---|
|-----2------------------3---------------|
|--0-------------------1-----------------|
|
|  Q        Q          Q        Q
|----------------------------------------|
|-----------0-------------------1--------|
|-----------0-------------------2--------|
|--2--------2----------3--------3--------|
|--2-------------------3-----------------|
|--0-------------------1-----------------|
|
|  ~~~                 ~~
|  Q.            S  S  Q        E    E
|----------------------------------------|
|---------------13-12--------------------|
|-12------------------14-------16---17---|
|----------------------------------------|
|-14------------------12-------14---15---|
|---------------12-15--------------------|


  Am
   S S S    S S S    S S  S  S S    S S S    S S
|-------------0-----------3---------0------------|
|-----------1---1------------1--------1------1---|
|------2-------------2---------2--------2------2-|
|----2-----------------2-------------------------|
|--0---------------------------------------------|
|------------------------------------------------|
|
|  Q          Q           Q.                 E
|-------------------------3------------------0---|
|-------------------------1------------------1---|
|--2----------2-----------2------------------2---|
|--2----------2----------------------------------|
|--0----------0----------------------------------|
|------------------------------------------------|
|
|  ~~~~~~~~~~~~~~~~~~~~~~~~~~~~~~~~~~~~~~~~~~~~~~~
|  |-------3-------|      |-------3--------|
|  Q      Q        Q      Q       Q        Q
|-15-----13-------12-----13------12-------10-----|
|-17-----15-------13-----15------13-------12-----|
|------------------------------------------------|
|------------------------------------------------|
|------------------------------------------------|
|------------------------------------------------|


  C
   S S S    S S S    S S  S  S  S S  S S  S S
|-------------0-----------3-------0-----------|
|-----------1---1------------1-------1----1---|
|------0-------------0----------0------0----0-|
|----2-----------------2----------------------|
|--3------------------------------------------|
|---------------------------------------------|
|
|  Q          Q           Q.              E
|-------------------------3---------------0---|
|-------------------------1---------------1---|
|--0----------0-----------0---------------0---|
|--2----------2-------------------------------|
|--3----------3-------------------------------|
|---------------------------------------------|
|
|~~~~~~~~~~~~~~~~~~~~
|  |-------3-------|
|  Q      Q        Q      E     E    E    E
|-12-----10--------------10-------------------|
|-13-----12-------13-----12----12--------12---|
|-----------------14-----------12---12---12---|
|-----------------------------------14--------|
|---------------------------------------------|
|---------------------------------------------|


  G
   S  S S S S S S S S  S S S   S  S  S  S
|-----------3-------3------0--------------|
|---------0---0--------0-------0-----0----|
|---------------0--------0--------0-----0-|
|-------0---------0-----------------------|
|-----2-----------------------------------|
|--3--------------------------------------|
|
|  Q        Q       Q.               E
|-------------------3----------------0----|
|-------------------0----------------0----|
|-------------------0----------------0----|
|--0--------0-----------------------------|
|--2--------2-----------------------------|
|--3--------3-----------------------------|
|
|  ~~~
|  H.                         +E     S  S
|-----------------------------------15-17-|
|-12-------------------------(12)---13-12-|
|-12-------------------------(12)---------|
|-----------------------------------------|
|-----------------------------------------|
|-----------------------------------------|


  Em                  F
   S  S S S S S  S  S  E        E         E         E
|-----------------------------------------------------------|
|-----------0-----------------------------------------------|
|---------0---0-----0-------------------------------2-------|
|-------2--------2------------------------3-----------------|
|-----2-------------------------3---------------------------|
|--0-------------------1------------------------------------|
|
|  Q        Q          S   S    S    S    S    S    S    S
|-----------------------------------------------------------|
|-----------0-----------------------------1-----------------|
|-----------0------------------------2---------2------------|
|--2--------2-------------------3-------------------3-------|
|--2-----------------------3-----------------------------3--|
|--0-------------------1------------------------------------|
|
|  ~~~                 ~~
|  Q.            S  S  S   S    S    S    S    S    S    S
|-19------------17-19-20--19---17---15---12-----------------|
|---------------13-12-------------------------15---13---12--|
|-12------------------14-(14)-(14)-(14)-(14)-(14)-(14)-(14)-|
|-----------------------------------------------------------|
|-----------------------------------------------------------|
|-----------------------------------------------------------|


 Chorus
  Am                        C              G               Em
      Q        E    S S S S E   E    E     Q   E   S S S S E E       E
|---------------------0-x-0-0---0----0---|-----------3-x-0-0---------0---|
|-----1--------1----1-1-x-1-1---1----1---|-----3---3-3-x-0-0-0-------0---|
|-----2--------2----2-2-x-0-0---0----0---|-0---0---0-0-x-0-0-0-------0---|
|-----2--------2----2-2-x-2-2---2----2---|-0---0---0-0-x-0-2-2-------2---|
|-----0--------0----0-0-x-0-3---3----3---|-2---2---2-2-x---2-2-------2---|
|----------------------------------------|-3---3---3-3-x---0-0-------0---|
|
|     E   E    S  S S S E   E   S  S E     E E S S S S E   E S    S  S S
|--------------0----------------0--------|-----3-----------------------0-|
|-----------------1---1------------1-----|-------3-------------------0---|
|-------------------2----------------0---|---------0--------------2------|
|---------2-----------------2------------|-----------0-------2-----------|
|-----0-----------------3----------------|---2-------------2-------------|
|----------------------------------------|-3-----------0-----------------|
|
|     |--3--|
| a a E E   E +H              a E.     S   E H             E S   +S  E
|-----8-7---5-(5)------------------------|-------------------------------|
|---x------------------------------------|---8-------------8-------------|
|-x---------------------------5h7------5-|-7-----------------7b9r(7)-5---|
|----------------------------------------|-------------------------------|
|----------------------------------------|-------------------------------|
|----------------------------------------|-------------------------------|


       Am                   C             G            Em
        Q    E   S S  S   S E E       E   Q    E   S S S S  E    E    E
|------------------0--x---0-0-0-------0-|------------3-x-0--0-----------------|
|-------1----1---1-1--x---1-1-1-------1-|------3---3-3-x-0--0----0----0-------|
|-------2----2---2-2--x---0-0-0-------0-|-0----0---0-0-x-0--0----0----0-------|
|-------2----2---2-2--x---2-2-2-------2-|-0----0---0-0-x-0--2----2----2-------|
|-------0----0---0-0--x---0-3-3-------3-|-2----2---2-2-x----2----2----2-------|
|---------------------------------------|-3----3---3-3-x----0----0----0-------|
|
|       E  E S S S S  E     E S    S  E   E  E S S S S E    E    S S  S  S
|------------0----------------0---------|------3-------------------------0----|
|--------------1---1---------------1----|--------3--------------------0-------|
|----------------2--------------------0-|----------0---------------2----------|
|----------2----------------2-----------|------------0-----------2------------|
|-------0-------------3-----------------|----2--------------2-----------------|
|---------------------------------------|-3------------0----------------------|
|
|       ~~~~~~~~~~~~~~~~~~                ~~
| a    +H            +E     E S   +S  E   Q.       S S S S +S  S S S +S  S
|---------------------------------------|-------------------------------------|
|---------------------------8-----------|-------------------------------------|
|-7b9==(7)-----------(7)r-----7b9r(7)-5-|-4--------4-4-4s2-(2)-2-2p0-(0)-0----|
|---------------------------------------|-------------------------------------|
|---------------------------------------|-------------------------------------|
|---------------------------------------|-------------------------------------|


  Am                        C              G               Em
      Q        E    S S S S E   E    E     Q   E   S S S S E E       E
|---------------------0-x-0-0---0----0---|-----------3-x-0-0---------0---|
|-----1--------1----1-1-x-1-1---1----1---|-----3---3-3-x-0-0-0-------0---|
|-----2--------2----2-2-x-0-0---0----0---|-0---0---0-0-x-0-0-0-------0---|
|-----2--------2----2-2-x-2-2---2----2---|-0---0---0-0-x-0-2-2-------2---|
|-----0--------0----0-0-x-0-3---3----3---|-2---2---2-2-x---2-2-------2---|
|----------------------------------------|-3---3---3-3-x---0-0-------0---|
|
|     E   E    S  S S S E   E   S  S E     E E S S S S E   E S    S  S S
|--------------0----------------0--------|-----3-----------------------0-|
|-----------------1---1------------1-----|-------3-------------------0---|
|-------------------2----------------0---|---------0--------------2------|
|---------2-----------------2------------|-----------0-------2-----------|
|-----0-----------------3----------------|---2-------------2-------------|
|----------------------------------------|-3-----------0-----------------|
|
|     |--3--|
| a a E E   E +H              a E.     S   E H             E S   +S  E
|-----8-7---5-(5)------------------------|-------------------------------|
|---x------------------------------------|---8-------------8-------------|
|-x---------------------------5h7------5-|-7-----------------7b9r(7)-5---|
|----------------------------------------|-------------------------------|
|----------------------------------------|-------------------------------|
|----------------------------------------|-------------------------------|


       Am                   C             G                    Em
        Q    E   S S  S   S E E       E   Q    E   S   S   S S E     E   E
|------------------0--x---0-0-0-------0-|--------------3---x-0-0--------------|
|-------1----1---1-1--x---1-1-1-------1-|------3---3---3---x-0-0-----0---0----|
|-------2----2---2-2--x---0-0-0-------0-|-0----0---0---0---x-0-0-----0---0----|
|-------2----2---2-2--x---2-2-2-------2-|-0----0---0---0---x-0-2-----2---2----|
|-------0----0---0-0--x---0-3-3-------3-|-2----2---2---2---x---2-----2---2----|
|---------------------------------------|-3----3---3---3---x---0-----0---0----|
|
|       E  E S S S S  E     E S    S  E   E  E S S S   S   E   E     S S S S
|------------0----------------0---------|------3---------------------------0--|
|--------------1---1---------------1----|--------3-----------------------0----|
|----------------2--------------------0-|----------0-------------------2------|
|----------2----------------2-----------|--------------0-------------2--------|
|-------0-------------3-----------------|----2-----------------2--------------|
|---------------------------------------|-3----------------0------------------|
|
|       ~~~~~~~~~~~~~~~~~~                ~~
|                                                  |--3--|     |-3-|
| a    +H            +E     E S   +S  E   Q.       S S   S E   S S S Q
|---------------------------------------|-------------------------------------|
|---------------------------8-----------|-------------------------------------|
|-7b9==(7)-----------(7)r-----7b9r(7)-5-|-4--------4h5p==4s2---2h4p2p0--------|
|---------------------------------------|-------------------------------------|
|---------------------------------------|-------------------------------------|
|---------------------------------------|-------------------------------------|


 Pre-Verse
  Am                                C
  S S S S S S S S S S S S S S S S   S S S S S S S S S S S S S S S S
|---------0-------3-----0---------|---------0-------3-----0---------|
|-------1---1-------1-----1---1---|-------1---1-------1-----1---1---|
|-----2-------2-------2-----2---2-|-----0-------0-------0-----0---0-|
|---2-----------2-----------------|---2-----------2-----------------|
|-0-------------------------------|-3-------------------------------|
|---------------------------------|---------------------------------|
|
| >                                 >
| W                                 W
|---------------------------------|---------------------------------|
|-1-------------------------------|-1-------------------------------|
|-2-------------------------------|-0-------------------------------|
|-2-------------------------------|-2-------------------------------|
|-0-------------------------------|-3-------------------------------|
|---------------------------------|---------------------------------|
|
| >                                 >
| W                                 W
|---------------------------------|---------------------------------|
|---------------------------------|-1-------------------------------|
|-2-------------------------------|---------------------------------|
|---------------------------------|---------------------------------|
|---------------------------------|---------------------------------|
|---------------------------------|---------------------------------|


  G                                 Em              F
  S S S S S S S S S S S S S S S S   S S S S S S S S S S S S S S S S
|---------3-------3-----0---------|------------------------------------|
|-------0---0-------0-----0---0---|---------0---------------1----------|
|-------------0-------0-----0---0-|-------0---0---0-------2---2---2----|
|-----0---------0-----------------|-----2-------2-------3-------3------|
|---2-----------------------------|---2---------------3----------------|
|-3-------------------------------|-0---------------1------------------|
|
| >                                 >               >
| W                                 H               H
|---------------------------------|------------------------------------|
|---------------------------------|------------------------------------|
|-0-------------------------------|-0---------------2------------------|
|-0-------------------------------|-2---------------3------------------|
|-2-------------------------------|-2---------------3------------------|
|-3-------------------------------|-0---------------1------------------|
|
| >                                 >               >
| W                                 H               H
|---------------------------------|------------------------------------|
|---------------------------------|------------------------------------|
|-0-------------------------------|------------------------------------|
|---------------------------------|-2---------------3------------------|
|---------------------------------|------------------------------------|
|---------------------------------|------------------------------------|


  Am                                C
  S S S S S S S S S S S S S S S S   S S S S S S S S S S S S S S S S
|---------0-------3-----0---------|---------0-------3-----0---------|
|-------1---1-------1-----1---1---|-------1---1-------1-----1---1---|
|-----2-------2-------2-----2---2-|-----0-------0-------0-----0---0-|
|---2-----------2-----------------|---2-----------2-----------------|
|-0-------------------------------|-3-------------------------------|
|---------------------------------|---------------------------------|
|
| Q       Q       Q       Q         Q       Q       Q       Q
|-----------------3-------0-------|-----------------3-------0-------|
|-----------------1-------1-------|-----------------1-------1-------|
|-2-------2-------2-------2-------|-0-------0-------0-------0-------|
|-2-------2-----------------------|-2-------2-----------------------|
|-0-------0-----------------------|-3-------3-----------------------|
|---------------------------------|---------------------------------|
|
| W                                 W
|---------------------------------|---------------------------------|
|---------------------------------|---------------------------------|
|-2-------------------------------|-0-------------------------------|
|---------------------------------|---------------------------------|
|---------------------------------|---------------------------------|
|---------------------------------|---------------------------------|


  G                                  Em              F
  S  S S S S S S S S S S S S S S S   S S S S S S S S S S S S S S S S
|----------3-------3-----0---------|------------------------------------|
|--------0---0-------0-----0---0---|---------0---------------1----------|
|--------------0-------0-----0---0-|-------0---0---0-------2---2---2----|
|------0---------0-----------------|-----2-------2-------3-------3------|
|----2-----------------------------|---2---------------3----------------|
|-3--------------------------------|-0---------------1------------------|
|
| Q        Q       Q       Q         Q       Q       Q       Q
|------------------3-------0-------|------------------------------------|
|------------------0-------0-------|---------0---------------1----------|
|------------------0-------0-------|---------0---------------2----------|
|-0--------0-----------------------|-2-------2-------3-------3----------|
|-2--------2-----------------------|-2---------------3------------------|
|-3--------3-----------------------|-0---------------1------------------|
|
| H.                       Q         H               H
|----------------------------------|------------------------------------|
|----------------------------------|------------------------------------|
|--------------------------0-------|------------------------------------|
|-0--------------------------------|-2---------------3------------------|
|----------------------------------|------------------------------------|
|----------------------------------|------------------------------------|


 Verse
  Am
   S S S    S S S    S S  S S S    S S S    S S
|-------------0-----------3--------0------------|
|-----------1---1-----------1--------1------1---|
|------2-------------2--------2--------2------2-|
|----2-----------------2------------------------|
|--0--------------------------------------------|
|-----------------------------------------------|
|
|  Q          Q           Q          Q
|-------------------------3----------0----------|
|-------------------------1----------1----------|
|--2----------2-----------2----------2----------|
|--2----------2---------------------------------|
|--0----------0---------------------------------|
|-----------------------------------------------|
|
|  ~~~~~~~~~~~~~~~~~~~~~~~~~~~~~~~~~~~~~~~~~~~~~~
|  |-------3-------|      |-------3-------|
|  Q      Q        Q      Q      Q        Q
|-----------------------------------------------|
|-17-----15-------13-----15-----13-------12-----|
|-----------------------------------------------|
|-----------------------------------------------|
|-----------------------------------------------|
|-----------------------------------------------|


  C
   S S S    S S S    S S  S S  S S  S S  S S
|-------------0-----------3------0-----------|
|-----------1---1-----------1-------1----1---|
|------0-------------0---------0------0----0-|
|----2-----------------2---------------------|
|--3-----------------------------------------|
|--------------------------------------------|
|
|  Q          Q           Q         Q
|-------------------------3---------0--------|
|-------------------------1---------1--------|
|--0----------0-----------0---------0--------|
|--2----------2------------------------------|
|--3----------3------------------------------|
|--------------------------------------------|
|
|~~~~~~~~~~~~~~~~~~~~
|  |-------3-------|
|  Q      Q        Q      E    E    E    E
|--------------------------------------------|
|-13-----12--------------12------------------|
|-----------------14----------12--------12---|
|----------------------------------14--------|
|--------------------------------------------|
|--------------------------------------------|


  G
   S  S S S S S S S S S S S   S  S  S  S
|-----------3-------3-----0--------------|
|---------0---0-------0-------0-----0----|
|---------------0-------0--------0-----0-|
|-------0---------0----------------------|
|-----2----------------------------------|
|--3-------------------------------------|
|
|  Q        Q       Q         Q
|-------------------3---------0----------|
|-------------------0---------0----------|
|-------------------0---------0----------|
|--0--------0----------------------------|
|--2--------2----------------------------|
|--3--------3----------------------------|
|
|  ~~~~~~~~~~~~~~~~~~~~~~~~~~~~~~
|  H.                        +E     S  S
|----------------------------------------|
|-12------------------------(12)---13-12-|
|-12------------------------(12)---------|
|----------------------------------------|
|----------------------------------------|
|----------------------------------------|


  Em                  F
   S  S S S S S  S  S  S S    S    S  S S    S    S
|---------------------------------------------------|
|-----------0-------------------------1-------------|
|---------0---0-----0--------------2----2---------2-|
|-------2--------2------------3--------------3------|
|-----2------------------3--------------------------|
|--0-------------------1----------------------------|
|
|  Q        Q          Q              Q
|---------------------------------------------------|
|-----------0-------------------------1-------------|
|-----------0-------------------------2-------------|
|--2--------2----------3--------------3-------------|
|--2-------------------3----------------------------|
|--0-------------------1----------------------------|
|
|  ~~~                 ~~
|                      |----3----|    |----3----|
|  Q.            S  S  E    E    E    E    E    E
|---------------------------------------------------|
|---------------13-12------12---13---15---13---12---|
|-12------------------14----------------------------|
|---------------------------------------------------|
|---------------------------------------------------|
|---------------------------------------------------|


  Am
   S S S    S S S    S S  S S S    S S S    S S
|-------------0-----------3--------0------------|
|-----------1---1-----------1--------1------1---|
|------2-------------2--------2--------2------2-|
|----2-----------------2------------------------|
|--0--------------------------------------------|
|-----------------------------------------------|
|
|  Q          Q           Q          Q
|-------------------------3----------0----------|
|-------------------------1----------1----------|
|--2----------2-----------2----------2----------|
|--2----------2---------------------------------|
|--0----------0---------------------------------|
|-----------------------------------------------|
|
|  ~~~~~~~~~~~~~~~~~~~~~~~~~~~~~~~~~~~~~~~~~~~~~~
|  |-------3-------|      |-------3-------|
|  Q      Q        Q      Q      Q        Q
|-15-----13-------12-----13-----12-------10-----|
|-----------------------------------------------|
|-12-----10--------9-----10------9--------7-----|
|-----------------------------------------------|
|-----------------------------------------------|
|-----------------------------------------------|


  C
   S S S    S S S    S S  S S  S S  S S  S S
|-------------0-----------3------0-----------|
|-----------1---1-----------1-------1----1---|
|------0-------------0---------0------0----0-|
|----2-----------------2---------------------|
|--3-----------------------------------------|
|--------------------------------------------|
|
|  Q          Q           Q         Q
|-------------------------3---------0--------|
|-------------------------1---------1--------|
|--0----------0-----------0---------0--------|
|--2----------2------------------------------|
|--3----------3------------------------------|
|--------------------------------------------|
|
|~~~~~~~~~~~~~~~~~~~~
|  |-------3-------|
|  Q      Q        Q      E    E    E    E
|-12-----10--------------10------------------|
|-----------------13----------12--------12---|
|--9------7---------------7--------12--------|
|-----------------10-----------9---------9---|
|----------------------------------10--------|
|--------------------------------------------|


  G
   S  S S S S S S S S S S S   S  S  S  S
|-----------3-------3-----0--------------|
|---------0---0-------0-------0-----0----|
|---------------0-------0--------0-----0-|
|-------0---------0----------------------|
|-----2----------------------------------|
|--3-------------------------------------|
|
|  Q        Q       Q         Q
|-------------------3---------0----------|
|-------------------0---------0----------|
|-------------------0---------0----------|
|--0--------0----------------------------|
|--2--------2----------------------------|
|--3--------3----------------------------|
|
|  ~~~
|  H.                        +E     S  S
|----------------------------------------|
|-12------------------------(12)---13-12-|
|-12------------------------(12)---------|
|----------------------------------------|
|----------------------------------------|
|----------------------------------12-15-|


  Em                  F
   S  S S S S S  S  S  S S S S  S S  S S
|----------------------------------------|
|-----------0-------------------1--------|
|---------0---0-----0--------2----2----2-|
|-------2--------2---------3---------3---|
|-----2------------------3---------------|
|--0-------------------1-----------------|
|
|  Q        Q          Q        Q
|----------------------------------------|
|-----------0-------------------1--------|
|-----------0-------------------2--------|
|--2--------2----------3--------3--------|
|--2-------------------3-----------------|
|--0-------------------1-----------------|
|
|  ~~~                 ~~
|  Q.            S  S  Q        E    E
|----------------------------------------|
|---------------13-12--------------------|
|-12------------------14-------16---17---|
|----------------------------------------|
|-14------------------12-------14---15---|
|---------------12-15--------------------|


  Am                                      C
   E E    S S    S S  S S S    S E    E    E E    S S    S S  S S  S S  E  E
|---------0-----------3--------0--------|---------0-----------3------0--------|
|-----------1-----------1--------1------|-----------1-----------1-------1-----|
|----2-----------2--------2-----------2-|----0-----------0---------0-------0--|
|------------------2--------------------|------------------2------------------|
|--0------------------------------------|--3----------------------------------|
|---------------------------------------|-------------------------------------|
|
|  Q      Q           Q          Q         Q      Q           Q         Q
|---------------------3----------0------|---------------------3---------0-----|
|---------------------1----------1------|---------------------1---------1-----|
|--2------2-----------2----------2------|--0------0-----------0---------0-----|
|--2------2-----------------------------|--2------2---------------------------|
|--0------0-----------------------------|--3------3---------------------------|
|---------------------------------------|-------------------------------------|
|
|  ~~~~~~~~~~~~~~~~~~~~~~~~~~~~~~~~~~~~~~~~~~~~~~~~~~~~~~
|  |-----3-----|      |------3------|      |-----3-----|
|  Q    Q      Q      Q      Q      Q      Q    Q      Q      E    E    E  E
|-15---13-----12-----13-----12-----10---|-12---10------------10---------------|
|-17---15-----13-----15-----13-----12---|-13---12-----13-----12---12------12--|
|---------------------------------------|-------------14----------12---12-12--|
|---------------------------------------|------------------------------14-----|
|---------------------------------------|-------------------------------------|
|---------------------------------------|-------------------------------------|


  G                                  Em            G
   E  E S S S S S S S S   E   E       E  E E  E     E    E   S S   S  S
|-------3-------3-----0------------|-------------------------------------|
|---------0-------0-------0--------|-------------------------------------|
|-----------0-------0---------0----|-------0-----------------0--------0--|
|-----0-------0--------------------|-----2----2----------0-----0---------|
|----------------------------------|----------------2--------------2-----|
|--3-------------------------------|--0----------------------------------|
|
|  Q    Q       Q         Q           E  E E  E     S  S S S S S   S  S
|---------------3---------0--------|----------------3--------------------|
|---------------0---------0--------|----------0--------3--------------3--|
|---------------0---------0--------|-------0-------------0---------0-----|
|--0----0--------------------------|-----2-----------------0---0---------|
|--2----2--------------------------|--2----------------------2-----------|
|--3----3--------------------------|-------------------------------------|
|
|  ~~~~~~~~~~~~~~~~~~~~~~~~~~         ~~~           ~~~
|  H.                    +E   S  S    Q.      S  S  Q.             E
|----------------------------15-17-|-19------17-19-22------------(22)----|
|-12--------------------(12)-13-12-|---------13-12-----------------------|
|-12--------------------(12)-------|-12------------12--------------------|
|----------------------------------|------------------------------12-----|
|----------------------------------|-------------------------------------|
|----------------------------------|-------------------------------------|


 Interlude
  Em                                  Em7/C
   E  E E Q      E    E      E         E  E E Q.          E      S    S
|---------3-------------------------|---------3-----------3------x----3-|
|-------0--------0------------------|-------3-------------3------x----3-|
|-----0---------------0-------------|---------------------0------x----x-|
|--2-------------------------2------|-----2-----------------------------|
|-----------------------------------|--3--------------------------------|
|-----------------------------------|-----------------------------------|
|
|  E  E E E  S S S S  S S    S    S    E  E E E  S S S S  S S    S    S
|---------0--3-----





Comments


Popular Quinn Peck tabs & chords
Going Down Bass Tabs
Wonderful Week Bass Tabs
As She Smiles Tabs
Going Down Tabs
Half Way Around Tabs
The Girl I Love Tabs
The Midnight Sun Tabs
Walking Alone Tabs
What I Could Have Said Tabs
Wonderful Week Tabs


Song lyrics



↑ Back to top | Tablatures and chords are parodies/interpretations of the original songs. You may use it for private study, scholarship, research or language learning purposes only
© 2014 AZChords.com Contact us | Privacy policy | DMCA | Add/correct tabs | Request tabs | Top 50 tabs