» » »

Quinn Peck, And Life Goes On Bass tabs (ver.1)

Artists:  A B C D E F G H I J K L M N O P Q R S T U V W X Y Z # 

And Life Goes On Bass tabs (ver.1)

Quinn Peck Tabs
 Rating:
4/5 (4 votes)
And Life Goes On lessons Tabs too difficult? Try these video lessons and learn fast
1
                #------------------------------------------------------------------------------##

                         ...AND LIFE GOES ON (Bassline)
                            As recorded by Quinn Peck

Music by Quinn Peck
Arranged by guitarist5240

Gtr I (E A D G) - 'Untitled'
Gtr II (E A D G) - 'Untitled'

 Verse
  Q=120         H.=H
 4/4
  Gtr I
  Wx38          W          W
|-------------|----------|------|
|-------------|----------|------|
|-------------|----------|------|
|-------------|----------|------|


 Chorus
  Q=90
  Wx8
|--------|
|--------|
|--------|
|--------|


 Bridge             Verse
  H=H                Q=120
  Gtr I
  E E E E  E E E E   E E E E E E E E
|------------------|-----------------|
|---------/6-6-7-7-|-----------------|
|------------------|-----------------|
|-0-0-0-0----------|-0-0-0-0-0-0-0-0-|


  E E E E  E E E E   E E E E E E E E   E E E E E E a E E
|------------------|-----------------|-------------------|
|---------/6-6-6-7-|-9-9-9-----------|-7-7-7-7-7-6-6h7-6-|
|------------------|-------7-7-7-7-7-|-------------------|
|-0-0-0-0----------|-----------------|-------------------|


  E E E E E E E E   E E E E E E E E   E E E E E E E E   E E E E E E E +E
|-----------------|-----------------|-----------------|---------------------|
|-----------------|-----------------|-----------------|---------------------|
|-----------------|-7-7-7-7-7-7-7-7-|-----------------|---------------------|
|-0-0-0-0-0-0-0-0-|-----------------|-9-9-9-9-9-9-9-9-|-5-5-5-5-5-5-5-(5)\--|


   E  E  E  E  E  E  E  +E      E  E  E  E  E  E  E  E
|----------------------------|-------------------------|
|-14-14-14-14-14-14-14-(14)\-|-------------------------|
|----------------------------|-11-11-11-11-11-11-11-11-|
|----------------------------|-------------------------|


   E  E  E  E  E  E  E  E   E E E E E E E E
|-------------------------|------------------|
|-------------------------|------------------|
|-12-12-12-12-12-12-12-12-|-7-7-7-7-7-7-7-7--|
|-------------------------|------------------|


  E E E E E E E E   E E E E  E E E E   E E E E E E E E   E E E E E E a E E
|-----------------|------------------|-----------------|-------------------|
|-----------------|---------/6-6-6-7-|-9-9-9-----------|-7-7-7-7-7-6-6h7-6-|
|-----------------|------------------|-------7-7-7-7-7-|-------------------|
|-0-0-0-0-0-0-0-0-|-0-0-0-0----------|-----------------|-------------------|


  E E E E E E E E   E E E E E E E E   E E E E E E E E   E E E E E E E +E
|-----------------|-----------------|-----------------|---------------------|
|-----------------|-----------------|-----------------|---------------------|
|-----------------|-7-7-7-7-7-7-7-7-|-----------------|---------------------|
|-0-0-0-0-0-0-0-0-|-----------------|-9-9-9-9-9-9-9-9-|-5-5-5-5-5-5-5-(5)\--|


    E E E E E E E E   E E E E E E E E   E E E E E E E E   E E E E E E E E
||------------------|-----------------|-----------------|------------------||
||o-----------------|-7-7-7-7-7-7-7-7-|-6-6-6-6-6-6-6-6-|-----------------o||
||o-0-0-0-0-0-0-0-0-|-----------------|-----------------|-7-7-7-7-7-7-7-7-o||
||------------------|-----------------|-----------------|------------------||


  E E E E E E E E   E E E E  E E E E   E E E E E E E E   E E E E E E a E E
|-----------------|------------------|-----------------|-------------------|
|-----------------|---------/6-6-6-7-|-9-9-9-----------|-7-7-7-7-7-6-6h7-6-|
|-----------------|------------------|-------7-7-7-7-7-|-------------------|
|-0-0-0-0-0-0-0-0-|-0-0-0-0----------|-----------------|-------------------|


                                      H.=H
  E E E E E E E E   E E E E E E E E   E E E E E E E E   W
|-----------------|-----------------|-----------------|------|
|-----------------|-----------------|-----------------|------|
|-----------------|-7-7-7-7-7-7-7-7-|-----------------|------|
|-0-0-0-0-0-0-0-0-|-----------------|-9-9-9-9-9-9-9-9-|-5----|


 Chorus
  Q=90
                                    ~~~~
  E. S S S E +H        E  E E   E  +H
|-------------------|---------------------|
|-------------------|---------/14-(14)----|
|----------7-(7)----|-11-12-x-------------|
|-0--0-x-x----------|---------------------|


                                     ~~~~
  E. S S S E +H        E  E  E   E  +H
|-------------------|----------------------|
|-------------------|----------/14-(14)----|
|----------7-(7)----|-11-12-11-------------|
|-0--0-x-x----------|----------------------|


                                    ~~~~
  E. S S S E +H        E  E E   E  +H
|-------------------|---------------------|
|-------------------|---------/14-(14)----|
|----------7-(7)----|-11-12-x-------------|
|-0--0-x-x----------|---------------------|


                                     ~~~~
  E. S S S E +H        E  E  E   E  +H
|-------------------|----------------------|
|-------------------|----------/14-(14)----|
|----------7-(7)----|-11-12-11-------------|
|-0--0-x-x----------|----------------------|


 Bridge               Guitar Solo/Outro
  H=H                  Q=120
  E E E E  E E E E     E E E E E E E E
|------------------||------------------|
|---------/6-6-7-7-||o-----------------|
|------------------||o-----------------|
|-0-0-0-0----------||--0-0-0-0-0-0-0-0-|


  E E E E  E E E E   E E E E E E E E   E E E E E E a E E
|------------------|-----------------|-------------------|
|---------/6-6-6-7-|-9-9-9-----------|-7-7-7-7-7-6-6h7-6-|
|------------------|-------7-7-7-7-7-|-------------------|
|-0-0-0-0----------|-----------------|-------------------|


  E E E E E E E E   E E E E E E E E   E E E E E E E E   E E E E E E E +E
|-----------------|-----------------|-----------------|---------------------|
|-----------------|-----------------|-----------------|---------------------|
|-----------------|-7-7-7-7-7-7-7-7-|-----------------|---------------------|
|-0-0-0-0-0-0-0-0-|-----------------|-9-9-9-9-9-9-9-9-|-5-5-5-5-5-5-5-(5)\--|


   E  E  E  E  E  E  E  +E      E  E  E  E  E  E  E  E
|----------------------------|-------------------------|
|-14-14-14-14-14-14-14-(14)\-|-------------------------|
|----------------------------|-11-11-11-11-11-11-11-11-|
|----------------------------|-------------------------|


   E  E  E  E  E  E  E  E   E E E E E E E E
|-------------------------|------------------|
|-------------------------|------------------|
|-12-12-12-12-12-12-12-12-|-7-7-7-7-7-7-7-7--|
|-------------------------|------------------|


  E E E E E E E E   E E E E  E E E E   E E E E E E E E   E E E E E E a E E
|-----------------|------------------|-----------------|--------------------||
|-----------------|---------/6-6-6-7-|-9-9-9-----------|-7-7-7-7-7-6-6h7-6-o||
|-----------------|------------------|-------7-7-7-7-7-|-------------------o||
|-0-0-0-0-0-0-0-0-|-0-0-0-0----------|-----------------|--------------------||


  E E E E E E E E   E E E E  E E E E
|-----------------|------------------|
|-----------------|---------/6-6-6-7-|
|-----------------|------------------|
|-0-0-0-0-0-0-0-0-|-0-0-0-0----------|


  H.=H                                 Q=60
  E E E E E E E E   H    +E  E a E E   W
|-----------------|------------------|------*|
|-9-9-9-----------|-7----(7)-6-6h7-6-|------*|
|-------7-7-7-7-7-|------------------|-7----*|
|-----------------|------------------|------*|


Duration Legend
---------------
W - whole; H - half; Q - quarter; E - 8th; S - 16th; T - 32nd; X - 64th; a - acciaccatura
+ - note tied to previous; . - note dotted; .. - note double dotted
Uncapitalized letters represent notes that are staccato (1/2 duration)
Irregular groupings are notated above the duration line
Duration letters will always appear directly above the note/fret number it represents the
duration for.  Duration letters with no fret number below them represent rests.  Multi-
bar rests are notated in the form Wxn, where n is the number of bars to rest for.  Low
melody durations appear below the staff

Tablature Legend
----------------
 h   - hammer-on
 p   - pull-off
 b   - bend
 pb  - pre-bend
 r   - bend release (if no number after the r, then release immediately)
 /\  - slide into or out of (from/to "nowhere")
 s   - legato slide
 S   - shift slide
  - natural harmonic
[n]  - artificial harmonic
n(n) - tapped harmonic
 ~   - vibrato
 tr  - trill
 T   - tap
 TP  - trem. picking
 PM  - palm muting
\n/  - tremolo bar dip; n = amount to dip
 \n  - tremolo bar down
 n/  - tremolo bar up
/n\  - tremolo bar inverted dip
 =   - hold bend; also acts as connecting device for hammers/pulls
 <>  - volume swell (louder/softer)
 x   - on rhythm slash represents muted slash
 o   - on rhythm slash represents single note slash

Misc Legend
-----------
 |  - bar
||  - double bar
||o - repeat start
o|| - repeat end
*|  - double bar (ending)
 :  - bar (freetime)
 $  - Segno
 &  - Coda
Tempo markers -  = BPM(8/16=s8/s16), where s8 = swing 8ths, s16 = swing 16ths


***************************************************************************************
***************************************************************************************
            
Submit corrections

comments powered by Disqus
↑ Back to top | Quinn Peck Bass for And Life Goes On. Lyrics for acoustic guitar and electric guitar. 1 Tablatures and chords are parodies/interpretations of the original songs. You may use it for private study, scholarship, research or language learning purposes only