» » »

Quina Claudio, Clear Your Mind Tabs (ver.1)

Artists:  A B C D E F G H I J K L M N O P Q R S T U V W X Y Z # 

Clear Your Mind Tabs (ver.1)

Quina Claudio Tabs
Rating:
0/5 (0 votes)
Clear Your Mind lessons Tabs too difficult? Try these video lessons and learn fast
                Claudio Quina - Clear Your Mind Anyway



(intro)
   B               D               A
e|-----------------2---2---2^3-2---------------0-------------2-
B|-4---4---2---4-----3---3------3--2---2---2^3---2---2---2^3---
G|-4-4-4-4-4-4---4-----------------2-2-2-2-------2-2-2-2-------
D|-----------------0---0---0---0-------------------------------
A|-2---2---2---2-------------------0---0---0-----0---0---0-----
E|-------------------------------------------------------------

(intro - over the verses)
    B
the bird that fly over the sky
    D
the words that i can not say
         A
in these days

i hear that you go way
the plane that you gonna take
another day

the dark that'll stay in my life
the eyes that are open wide
but not today

the lies that i wanna hear
the trues that you tell me near
every day


bridge:
      G              D D7 D        A  A7 A A7 A
don't tell me trues, i don't wanna hear
    G           D D7 D           A  A7 A A7 A
you cheat every day , since that year



chorus:
E
tell me what i wanna year, 
      G
don't break my heart
don't be sincered                     x2
D
why don't you wanna clear
A
all that chet i make that year

E
c'mon c'mon c'mon c'mon 
G
i don't know what more can i say
   D
to change your mind,                  x2  
to find the way
   A
to clear your mind anyway


solo:
    E               G           D               A     
e|--12-10-12-10-12--12--12--12--12-10-12-10-12--12--12-----10
B|--------------------8---8-----------------------10--10-12--
G|-----------------------------------------------------------
D|-----------------------------------------------------------
A|-----------------------------------------------------------
E|-----------------------------------------------------------


the rainbow that have only two colors
black and white cause the sponsors
don't go way

the films that i make in my mind
the thougts that i have all the times
every days

the dark that'll stay in my life
the eyes that are open wide
but not today

the lies that i wanna hear
the trues that you tell me near
every day




questions:
            

comments powered by Disqus
↑ Back to top | Quina Claudio Tabs for Clear Your Mind. Lyrics for acoustic guitar and electric guitar. Tablatures and chords are parodies/interpretations of the original songs. You may use it for private study, scholarship, research or language learning purposes only