>
 >
Youth Gone Wild

Youth Gone Wild Guitar Tabs

Quiet Riot - Youth Gone Wild chords, tabs, tablatures, lyrics

Guitar lessons | Add/correct | Request | Top 50 tabs Artists:  A B C D E F G H I J K L M N O P Q R S T U V W X Y Z 0-9

Youth Gone Wild Guitar Tabs – Quiet Riot

CD, Sheet music, Poster

Do you like Youth Gone Wild? Share with your friends now
Tabs
"YOUTH GONE WILD" - SKID ROW





INTRO:
e|--------------|
B|--------------|
G|--3-3--3-3----|
D|--3-3--3-3----|
A|--1-1--1-1----|
E|--------------|


e|------------------|---------------|---------------|-----------------|
B|------------------|---------------|---------------|-----------------|
G|----5-3-0--2-3-0--|-5-3-0--2-3-3--|-5-3-0--2-3-3--|-----------------|
D|-5--5-3-0--3-3-0--|-5-3-0--3-3-1--|-5-3-0--3-3-1--|-1p0-0-0---------|
A|-5----------------|---------------|---------------|---------1p0-0---|
E|-3----------------|---------------|---------------|-----------------|


e|------------------|---------------|---------------|-----------------|
B|------------------|---------------|---------------|-----------------|
G|----5-3-0--2-3-0--|-5-3-0--2-3-3--|-5-3-0--2-3-3--|-----------------|
D|-5--5-3-0--3-3-0--|-5-3-0--3-3-1--|-5-3-0--3-3-1--|-1p0-0-0---------|
A|-5----------------|---------------|---------------|---------1p0-0---|
E|-3----------------|---------------|---------------|-----------------|

e|------------------|
B|------------------|
G|------------------|   <= 4 Bars With Bass Fill
D|--5---------------|
A|--5---------------|
E|--3---------------|

VERSE 1:
      Since I was born,                 Another misfit kid,
         they couldn't hold me down             Another burned out town
e|------------------|---------------|---------------|-----------------|
B|------------------|---------------|---------------|-----------------|
G|--2--3*-----------|---------------|--2--3*--------|-----------------|
D|--3--5*-----------|---------------|--3--1*--------|-----------------|
A|------------------|---------------|---------------|-----------------|
E|------------------|---------------|---------------|-----------------|
                (* = let notes ring throughout 2nd bar)

       I never played by the rules,     My nasty reputation
            and I never really cared            took me everywhere
e|------------------|---------------|---------------|-----------------|
B|------------------|---------------|---------------|-----------------|
G|--2--3*-----------|---------------|--2--3*--------|-----------------|
D|--3--5*-----------|---------------|--3--1*--------|-1p0-0-0---------|
A|------------------|---------------|---------------|---------1p0-0---|
E|------------------|---------------|---------------|-----------------|
                (* = let notes ring throughout 2nd bar)

PRE CHORUS:
I look and see it's not only me
e|---------------|------------------|----------------|-----------------|
B|---------------|------------------|----------------|-----------------|
G|---------------|------------------|----3p0--x----5-|-(w/ artif harm)-|
D|-3--3-------3--|-------3--------3-|-5--3p0--x--5-5-|-----------------|
A|-3--3-------3--|-------3--------3-|-5-------x--5---|--5--3-----------|
E|-1--1-1-1-1-1--|-1-1-1-1--1-1-1-1-|-3----------3---|--------6--5-----|

So many others have stood where I stand, we are the young raise your hands
e|---------------|------------------|----------------|-----------------|
B|---------------|------------------|----------------|-----------------|
G|---------------|------------------|--8------7------|-----------------|
D|-3--3-------3--|-------3--------3-|--8------7------|-1p0-0-0---------|
A|-3--3-------3--|-------3--------3-|--6------5------|---------1p0-0---|
E|-1--1-1-1-1-1--|-1-1-1-1--1-1-1-1-|----------------|-----------------|

CHORUS 1:
They call us problem child              We walk an endless mile
        we spend our lives on trial             We are the youth gone wild
e|------------------|---------------|---------------|-----------------|
B|------------------|---------------|---------------|-----------------|
G|----5-3-0--2-3-0--|-5-3-0--2-3-3--|-5-3-0--2-3-3--|-----------------|
D|-5--5-3-0--3-3-0--|-5-3-0--3-3-1--|-5-3-0--3-3-1--|-1p0-0-0---------|
A|-5----------------|---------------|---------------|---------1p0-0---|
E|-3----------------|---------------|---------------|-----------------|

  We'll stand and we won't fall         The writing's on the wall
        We're one and one for all               We are the youth one wild
e|------------------|---------------|---------------|-----------------|
B|------------------|---------------|---------------|-----------------|
G|----5-3-0--2-3-0--|-5-3-0--2-3-3--|-5-3-0--2-3-3--|-----------------|
D|-5--5-3-0--3-3-0--|-5-3-0--3-3-1--|-5-3-0--3-3-1--|-1p0-0-0---------|
A|-5----------------|---------------|---------------|---------1p0-0---|
E|-3----------------|---------------|---------------|-----------------|

e|------------------|
B|------------------|
G|------------------|   <= 4 Bars
D|--5---------------|
A|--5---------------|
E|--3---------------|


VERSE 2:

Boss screamin' in my ear                Get your 3-piece, wall street smile
        about who I'm supposed to be       and son you'll look just like me
e|------------------|---------------|---------------|-----------------|
B|------------------|---------------|---------------|-----------------|
G|--2--3*-----------|---------------|--2--3*--------|-----------------|
D|--3--5*-----------|---------------|--3--1*--------|-----------------|
A|------------------|---------------|---------------|-----------------|
E|------------------|---------------|---------------|-----------------|
                (* = let notes ring throughout 2nd bar)

I said "Hey man,                        Park Ave, leads to
    There's somethin' you oughta know                   Skid Row"
e|------------------|---------------|---------------|-----------------|
B|------------------|---------------|---------------|-----------------|
G|--2--3*-----------|---------------|--2--3*--------|-----------------|
D|--3--5*-----------|---------------|--3--1*--------|-1p0-0-0---------|
A|------------------|---------------|---------------|---------1p0-0---|
E|------------------|---------------|---------------|-----------------|
                (* = let notes ring throughout 2nd bar)

PRE CHORUS 2:
        I look and see it's not only me
e|---------------|------------------|----------------|-----------------|
B|---------------|------------------|----------------|-----------------|
G|---------------|------------------|----3p0--x----5-|-(w/ artif harm)-|
D|-3--3-------3--|-------3--------3-|-5--3p0--x--5-5-|-----------------|
A|-3--3-------3--|-------3--------3-|-5-------x--5---|--5--3-----------|
E|-1--1-1-1-1-1--|-1-1-1-1--1-1-1-1-|-3----------3---|--------6--5-----|

So many others have stood where i stand, We are the young, raise your hands
e|---------------|------------------|----------------|-----------------|
B|---------------|------------------|----------------|-----------------|
G|---------------|------------------|--8------7------|-----------------|
D|-3--3-------3--|-------3--------3-|--8------7------|-1p0-0-0---------|
A|-3--3-------3--|-------3--------3-|--6------5------|---------1p0-0---|
E|-1--1-1-1-1-1--|-1-1-1-1--1-1-1-1-|----------------|-----------------|

CHORUS 2:
They call us problem child              We walk an endless mile
        we spend our lives on trial             We are the youth gone wild
e|------------------|---------------|---------------|-----------------|
B|------------------|---------------|---------------|-----------------|
G|----5-3-0--2-3-0--|-5-3-0--2-3-3--|-5-3-0--2-3-3--|-----------------|
D|-5--5-3-0--3-3-0--|-5-3-0--3-3-1--|-5-3-0--3-3-1--|-1p0-0-0---------|
A|-5----------------|---------------|---------------|---------1p0-0---|
E|-3----------------|---------------|---------------|-----------------|

 We'll stand and we won't fall          The writing's on the wall
        We're one and one for all               We are the youth one wild
e|------------------|---------------|---------------|-----------------|
B|------------------|---------------|---------------|-----------------|
G|----5-3-0--2-3-0--|-5-3-0--2-3-3--|-5-3-0--2-3-3--|-----------------|
D|-5--5-3-0--3-3-0--|-5-3-0--3-3-1--|-5-3-0--3-3-1--|-1p0-0-0---------|
A|-5----------------|---------------|---------------|---------1p0-0---|
E|-3----------------|---------------|---------------|-----------------|

        So let me hear ya get wild...
e|------------------|
B|------------------|
G|------------------|   <= 4 Bars
D|--5---------------|
A|--5---------------|
E|--3---------------|

SOLO (over this rhythm)

e|-----------------|-----------------|-----------------|-----------------|
B|-----------------|-----------------|-----------------|-----------------|
G|-----------------|-----------------|-----------------|-----------------|
D|-7-------------x-|-7-----------5-x-|-3-------------x-|-3-----------5-x-|
A|-7-7-7-7-7-7-7-x-|-7-7-7-7-7-7-5-x-|-3-3-3-3-3-3-3-x-|-3-3-3-3-3-3-5-x-|
E|-5-5-5-5-5-5-5-x-|-5-5-5-5-5-5-3-x-|-1-1-1-1-1-1-1-x-|-1-1-1-1-1-1-3-x-|

e|-----------------|-----------------|-----------------|-------------------|
B|-----------------|-----------------|-----------------|-------------------|
G|-----------------|-----------------|-----------------|-7-7---------------|
D|-7-------------x-|-7-----------5-x-|-3-----------3-x-|-7-7---------------|
A|-7-7-7-7-7-7-7-x-|-7-7-7-7-7-7-5-x-|-3-3-3-3-3-3-3-x-|-5-5-1p0-0-0-------|
E|-5-5-5-5-5-5-5-x-|-5-5-5-5-5-5-3-x-|-1-1-1-1-1-1-1-x-|-------------1p0-0-|


CHORUS 3:  (w/ drums)
They call us problem child              We walk an endless mile
        we spend our lives on trial             We are the youth gone wild
e|------------------|---------------|---------------|------------------|
B|------------------|---------------|---------------|------------------|
G|------------------|---------------|---------------|----------3-------|
D|--5\--------------|---------------|---------------|----------3--3----|
A|--5\--------------|---------------|---------------|----------1--3----|
E|--3\--------------|---------------|---------------|-------------1----|

We'll stand and we won't fall           The writing's on the wall
        We're one and one for all               We are the youth one wild
e|------------------|---------------|---------------|------------------|
B|------------------|---------------|---------------|------------------|
G|------------------|---------------|---------------|-----------3------|
D|--5*--------------|---------------|---------------|-----------3--3---|
A|--5*--------------|---------------|---------------|-----------1--3---|
E|--3*--------------|---------------|---------------|--------------1---|
        (* = let chord ring)

OUTRO:

Ohhh...             Ohhh...         Ohhh...     We are the youth gone wild
e|------------------|---------------|---------------|-----------------|
B|------------------|---------------|---------------|-----------------|
G|----5-3-0--2-3-0--|-5-3-0--2-3-3--|-5-3-0--2-3-3--|-----------------|
D|-5--5-3-0--3-3-0--|-5-3-0--3-3-1--|-5-3-0--3-3-1--|-1p0-0-0---------|
A|-5----------------|---------------|---------------|---------1p0-0---|
E|-3----------------|---------------|---------------|-----------------|

Ohhh...             Ohhh...         Ohhh...     We are the youth gone wild
e|------------------|---------------|---------------|-----------------|
B|------------------|---------------|---------------|-----------------|
G|----5-3-0--2-3-0--|-5-3-0--2-3-3--|-5-3-0--2-3-3--|-----------------|
D|-5--5-3-0--3-3-0--|-5-3-0--3-3-1--|-5-3-0--3-3-1--|-1p0-0-0---------|
A|-5----------------|---------------|---------------|---------1p0-0---|
E|-3----------------|---------------|---------------|-----------------|

Ohhh...             Ohhh...         Ohhh...     We are the youth gone wild
e|------------------|---------------|---------------|-----------------|
B|------------------|---------------|---------------|-----------------|
G|----5-3-0--2-3-0--|-5-3-0--2-3-3--|-5-3-0--2-3-3--|-----------3-----|
D|-5--5-3-0--3-3-0--|-5-3-0--3-3-1--|-5-3-0--3-3-1--|-----------3--3--|
A|-5----------------|---------------|---------------|-----------1--3--|
E|-3----------------|---------------|---------------|--------------1--|

Ohhh...             Ohhh...         Ohhh...     We are the youth gone
e|------------------|---------------|---------------|-----------------|
B|------------------|---------------|---------------|-----------------|
G|----5-3-0--2-3-0--|-5-3-0--2-3-3--|-5-3-0--2-3-3--|-----------3-----|
D|-5--5-3-0--3-3-0--|-5-3-0--3-3-1--|-5-3-0--3-3-1--|-----------3--3--|
A|-5----------------|---------------|---------------|-----------1--3--|
E|-3----------------|---------------|---------------|--------------1--|

    wild.
e|------------------|
B|------------------|
G|------------------|
D|--5\--------------|
A|--5\--------------|
E|--3\--------------|





Comments


Popular Quiet Riot tabs & chords
Cum On Feel The Noize Bass Tabs
Bang Your Head 3 Tabs
Come On Feel The Noise Tabs
Cum On Feel The Noize Tabs
Cum On Feel The Noize (Solo) Tabs
Cum On Feel The Noize 1 Tabs
Cum On Feel The Noize 2 Tabs
Mamas Little Angels Intro Tabs
Metal Health Tabs
Cum On Feel The Noize Ukulele


Song lyrics



↑ Back to top | Tablatures and chords are parodies/interpretations of the original songs. You may use it for private study, scholarship, research or language learning purposes only
© 2014 AZChords.com Contact us | Privacy policy | DMCA | Add/correct tabs | Request tabs | Top 50 tabs