» » »

Quiet Riot, Come Feel The Noise Tabs (ver.1)

Artists:  A B C D E F G H I J K L M N O P Q R S T U V W X Y Z # 

Come Feel The Noise Tabs (ver.1)

Quiet Riot Tabs
Rating:
0/5 (0 votes)
Come Feel The Noise lessons Tabs too difficult? Try these video lessons and learn fast
                Guitars 1 & 2 (dist.)
|---------------------------------------------------------------|
|---------------------------------------------------------------|
|---------------------------------------------------------------|
|---------------------------------------------------------------|
|---------------------------------------------------------------|
|-------7-/-19-\------------------------------------------------|



Palm mute_________________________________________________
|------------------|--------------------|-----------------------|
|------------------|--------------------|-----------------------|
|------------------|--4-4-4-4-4-4-4-4-4-|-----------------------|
|-5-5-5-5-5-5-5-5--|--4-4-4-4-4-4-4-4-4-|--2-2-2-2-2-2-2-2------|
|-5-5-5-5-5-5-5-5--|--2-2-2-2-2-2-2-2-2-|--2-2-2-2-2-2-2-2------|
|-3-3-3-3-3-3-3-3--|--------------------|--0-0-0-0-0-0-0-0------|


            And I     don't   know    why_____
|-------------------|---------------------|---------------------|
|-------------------|------------------3--|---------------------|
|-------------------|--2-------0-------2--|---------------------|
|-2-2-2-2-2-2-2-2---|--2-------0-------0--|---------------------|
|-2-2-2-2-2-2-2-2---|--0-------x----------|---------------------|
|-0-0-0-0-0-0-0-0---|----------3----------|---------------------|



 don't        know        why____
 don't        know        why____
|-------------------------------------|-------------------------|
|--------------------------3----------|-------------------------|
|--2-----------0-----------2----------|-------------------------|
|--2-----------0-----------0----------|-------------------------|
|--0-----------x----------------------|-------------------------|
|--------------3----------------------|-------------------------|



(use the following chords during these lyrics)

G5                                         B5
  So   you   think   my   sing  -  ing's   out  of    time,____ it
  All  that  mat -  ters  when    you're   some  dis  -  grace I'm



E5 
makes   me_____    mon   -   ey.                           I
 in     no_____    hur   -   ry.                    And    I



A5           G5              D5
don't        know________    why,_______                   I
don't        know________    why,_______                   I



A5           G5              D5
don't        know________    why,_______       an - y - more,____
don't        know________    why,_______       an - y - more,____






Gtrs. 1 & 2                                        *T
|------------------|---------------------|----------------------|
|------------------|---------------------|----------3-----------|
|-9-9-9-9-9-9-9-9--|--7-7-7-7-7-7-7-7----|--0-------2-----------|
|-9-9-9-9-9-9-9-9--|--7-7-7-7-7-7-7-7----|--0-------0-------2---|
|-7-7-7-7-7-7-7-7--|--5-5-5-5-5-5-5-5----|--x-------x-------2---|
|------------------|---------------------|--3-------2-------0---|
                                            *T= thumb on 6th str.



                    Girls,  rock  your boys____      We'll get
|------------------|--------------------|-----------------------|
|------------------|---------3----------|-----------------------|
|------------------|--0------2----------|-----------------------|
|-(2)--------------|--0------0-------2--|-----------------------|
|-(2)--------------|--x------x-------2--|-----------------------|
|-(0)--------------|--3------2-------0--|-----------------------|


 wild,  wild,  wild____                  wild,   wild,    wild____
|------------------|--------------------|-----------------------|
|----------------3-|--------------------|--------------------3--|
|-2------0-------2-|--------------------|-2--------0---------2--|
|-2------0-------0-|--------------------|-2--------0---------0--|
|-0------x---------|--------------------|-0--------x------------|
|--------3---------|--------------------|----------3------------|


                    Come on   feel   the noize._______
|-------------------|--------------------|----------------------|
|-(3)---------------|----------3---------|----------------------|
|-(2)---------------|-0--------2---------|----------------------|
|-(0)---------------|-0--------0-------2-|----------------------|
|-------------------|-x--------x-------2-|----------------------|
|-------------------|-3--------2-------0-|----------------------|


Girls,   rock   your boys.____    we'll get  wild    wild,
|--------------------|--------------------|---------------------|
|---------3----------|--------------------|---------------------|
|-0-------2----------|--------------------|---5-5-5-5-4-4-4-4---|
|-0-------0--------2-|--------------------|---5-5-5-5-4-4-4-4---|
|-x-------x--------2-|--------------------|---3-3-3-3-2-2-2-2---|
|-3-------2--------0-|--------------------|---------------------|



  wild,   ba  -  by,__________________________
|--------------------|--------------------|---------------------|
|--------------------|--------------------|---------------------|
|--2-2-2-2-0-0-0-0---|----3-3-3-3-3-3-3-3-|-3-3-3-3-3-3-3-3-----|
|--2-2-2-2-0-0-0-0---|----2-2-2-2-2-2-2-2-|-2-2-2-2-2-2-2-2-----|
|--0-0-0-0-x-x-x-x---|----0-0-0-0-0-0-0-0-|-0-0-0-0-0-0-0-0-----|
|----------3-3-3-3---|--------------------|---------------------|
                                          Interlude


                       come on!_____________         T
|--------------------|--------------------|---------------------|
|----3-3-3-3-3-3-3-3-|-3-3-3-3-3-3-3-3----|----------3----------|
|----2-2-2-2-2-2-2-2-|-2-2-2-2-2-2-2-2----|--0-------2----------|
|----0-0-0-0-0-0-0-0-|-0-0-0-0-0-0-0-0----|--0-------0-------2--|
|--------------------|--------------------|--x-------x-------2--|
|--------------------|--------------------|--3-------2-------0--|



                                   Gtr.3 (dist.)
|--------------------|--------------------|---------------------|
|--------------------|--------------------|---------------------|
|--------------------|--------------------|---------------------|
|--------------------|--------------------|---------------------|
|--------------------|--------------------|------7-/------------|
|--------------------|--------------------|------7-/------------|
|                                                               |
|                                                               |
|                                                               |
| Gtrs. 1 & 2                    T                              |
|--------------------|--------------------|---------------------|
|--------------------|-----------3--------|---------------------|
|--------------------|--0--------2--------|---------------------|
|-(2)----------------|--0--------0------2-|---------------------|
|-(2)----------------|--x--------x------2-|---------------------|
|-(0)----------------|--3--------2------0-|---------------------|




GUITAR SOLO
Gtr. 3
Palm mute________________   
|--------------------------------------------------|------------
|--------------------------------------------------|------------
|-----------------------------------12-14-12-------|------------
|-----------------------12-14-12-14----------14-12-|------------
|-----------12-14-12-14----------------------------|--14-12-14--
|-15-12-15-----------------------------------------|------------
|
|-------------------------12-15-12----12-|
|-------------12-15-12-15----------14----|
|-12-14-12-14----------------------------|
|----------------------------------------|
|----------------------------------------|
|----------------------------------------|


|-15^--15--14--15---14h15p14----|14-----------------------------|
|----------------------------17-|---17^(17)--15--(15)\--12--13--|
|-------------------------------|-------------------------------|
|-------------------------------|-------------------------------|
|-------------------------------|-------------------------------|
|-------------------------------|-------------------------------|


Gtrs. 1 & 2:
|----------------------------------|----------------------------|
|-15--13--12--13-----12--------12~~|----------------------12--13|
|-------------------------14-------|--14--12--11--12--14--------|
|----------------------------------|----------------------------|
|----------------------------------|----------------------------|
|----------------------------------|----------------------------|

                                           1½
|----------------------------------|----------------------------|
|-15--13--12--13-----12--------12--|-------------------------12-|
|-------------------------14-------|--14--12^------12~~~~-------|
|----------------------------------|----------------------------|
|----------------------------------|----------------------------|
|----------------------------------|----------------------------|


    1      1      1bend realease
|-15^----15^----15^(15)----14----15--|--17--15--14--------------|
|------------------------------------|--------------15~~~~--12--|
|------------------------------------|--------------------------|
|------------------------------------|--------------------------|
|------------------------------------|--------------------------|
|------------------------------------|--------------------------|


    1      1      1bend realease
|-15^----15^----15^(15)----14----15--|--17--15--14--------------|
|------------------------------------|--------------15~~~~--15--|
|------------------------------------|--------------------------|
|------------------------------------|--------------------------|
|------------------------------------|--------------------------|
|------------------------------------|--------------------------|

    1      1                 1bend release
|-17^----17^~~~~~~~~~~~~~~--17^(17)--|--15--17--19--17~~~~~-15--|
|------------------------------------|--------------------------|
|------------------------------------|--------------------------|
|------------------------------------|--------------------------|
|------------------------------------|--------------------------|
|------------------------------------|--------------------------|


*Trem pick this part
|-19-15-15-15-15-17-15-15-15-19-15-15-15-17-15-14-15-|-----
|----------------------------------------------------|-----
|----------------------------------------------------|-----
|----------------------------------------------------|-----
|----------------------------------------------------|-----
|----------------------------------------------------|-----
|                              1bend release
|-17-14-15-14-12h15p12----12------------------------------|
|----------------------14----15^(15)----------------------|
|---------------------------------------------------------|
|---------------------------------------------------------|
|---------------------------------------------------------|
|---------------------------------------------------------|
(*Trem picking is picking up and down as fast as you can)

Palm mute________________   
|--------------------------------------------------|------------
|--------------------------------------------------|------------
|-----------------------------------12-14-12-------|------------
|-----------------------12-14-12-14----------14-12-|------------
|-----------12-14-12-14----------------------------|--14-12-14--
|-15-12-15-----------------------------------------|------------
|
|-------------------------12-15-12----12-|
|-------------12-15-12-15----------14----|
|-12-14-12-14----------------------------|
|----------------------------------------|
|----------------------------------------|
|----------------------------------------|


    1                                                      1
|-15^----15-14h15p14p12-14h15p14p12--|--12-14-15-16-20---20^~~~|
|------------------------------------|-------------------------|
|------------------------------------|-------------------------|
|------------------------------------|-------------------------|
|------------------------------------|-------------------------|
|------------------------------------|-------------------------|


Gtrs.1&2:w/Rhy(2x) 
        Well you think we have a la - zy    time,____   you
|-(20)~~~~~~~~~~~~~~~~~~~~~~~~~~~~~~-|--------------------------|
|------------------------------------|--------------------------|
|------------------------------------|--------------------------|
|------------------------------------|--------------------------|
|------------------------------------|--------------------------|
|------------------------------------|--------------------------|
SOLO ENDS




 should know___ bet - ter.            I don't    know___ why.___





Guitar 3                  I don't  know___ why.___  
|----------------------------|--------|----------------------12-|
|----------------------------|--------|----------12-13-15-13----|
|---------4--5---7---5h7p5p4-|-5~~~~~-|-(5)\-/14----------------|
|--/-7-----------------------|--------|-------------------------|
|----------------------------|--------|-------------------------|
|----------------------------|--------|-------------------------|


    So,   you   say   I   got   a   dirt - y   mind,___   I'm  a
|---------------------------------|-----------------------------|
|---------------------------------|-----------------------------|
|---12~~~~~~~~~~~~~~~~~~~~~~~~~~~~|~~~~~~~~~~~~~~~~~~~~~~~~~~~~~|
|---------------------------------|-----------------------------|
|---------------------------------|-----------------------------|
|---------------------------------|-----------------------------|


  big___  go - get - ter            I   don't   know___   why___



                           I    don't      know___       why___
|----------------------------|----------------------------------|
|----------------------------|----------------------------------|
|---------4--5---7---5h7p5p4-|-5~~~~~~~~~~~~~~~~~~~~~~~~~~~~~~~-|
|--/-7-----------------------|----------------------------------|
|----------------------------|----------------------------------|
|----------------------------|----------------------------------|

                                  

|--------------------------------|--------------|---------------|
|-------------12--13--15--13--12-|--------------|---------------|
|-(5)-\-/-14---------------------|-12~~~~~~~~~~-|-11~~~~~~~~~~~-|
|--------------------------------|--------------|---------------|
|--------------------------------|--------------|---------------|
|--------------------------------|--------------|---------------|



CHORUS
Gtrs. 1, 2 & 3 tacet

Cum on,  feel the  noize,___  Girls,  rock  your boys___ we'll get




Gtrs. 1 & 2
    wild,        wild,      wild,___    on,  feel  the  noize___
|-||---------------------------|-----------------||-------------|
|-||*--------------------------|----------------*||-------------|
|-||---------------------------|-----------------||-------------|
|-||--10-----------9--------7--|--(7)--\---------||-------------|
|-||*--------------------------|----------------*||-------------|
|-||---------------------------|-----------------||-------------|


                         Girls,  rock   your boys,___   we'll get
|-----------------------|-----------------|---------------------|
|-----------------------|-----------------|---------------------|
|-----------------------|-----------------|---------------------|
|-----------------------|-----------------|---------------------|
|---5-/-21-\------------|-----------------|-----5-/-21-\--------|
|-----------------------|-----------------|---------------------|


Gtrs. 1 & 2 w/Rhy (last 4x)



 Wild,  wild,   wild     ba - by______________________________

 Come on,               feel    it.            Come on,

 Rock it.       We'll get     wild,    wild,    wild____

 wild,     wild,    wild___         Come on,  feel  the  noize___

 ---                   Girls,   rock  your  boys,      We'll get

 wild,    wild,     wild.






OUTRO-GUITAR SOLO

|--------------|----------------------------|------------------|
|--------------|--/-11--13--13--15--13--12--|------------------|
|--------------|----------------------------|-14--12~~~~~~~----|
|--------------|----------------------------|------------------|
|--------------|----------------------------|------------------|
|--------------|----------------------------|------------------|


                               1                1bend release
|--------------------------|-----------------------------|------|
|---------------12--13--15-|-15^~~~~----------15^(15)~~~~|------|
|-------12--14-------------|-----------------------------|------|
|-/-14---------------------|-----------------------------|------|
|--------------------------|-----------------------------|------|
|--------------------------|-----------------------------|------|


                 1bend release                1    1       1br
|--------------------------|--------------|-17^--17^-----17^(17)|
|-15(15)~~~~----15(15)~~~~-|------15\-----|---------------------|
|--------------------------|--------------|---------------------|
|--------------------------|--------------|---------------------|
|--------------------------|--------------|---------------------|
|--------------------------|--------------|---------------------|


|----15---17---15---14h17p14----14---15-|-17p14h15p14--
|----------------------------17---------|--------------
|---------------------------------------|--------------
|---------------------------------------|--------------
|---------------------------------------|--------------
|---------------------------------------|--------------
|
|-17p14h15p14---17p14p15p14----14---------------------|-----
|---------------------------17----17^(17)-15-17---17\-|-----
|-----------------------------------------------------|-----
|-----------------------------------------------------|-----
|-----------------------------------------------------|-----
|-----------------------------------------------------|-----
|
|---------------------------------------------------------------|
|-----------12h14^----12-------12h13p12-------------------------|
|------------------14--------------------14---------------------|
|--12---14-----------------14-----------------------------------|
|---------------------------------------------------------------|
|---------------------------------------------------------------|

                                           1bend release
|--------------------------------------|---------------------
|-12--15^(15)~~~~--15---12h15p12----12-|---------------------
|--------------------------------14----|-14^(14)h12-14~~~~---
|--------------------------------------|---------------------
|--------------------------------------|---------------------
|--------------------------------------|---------------------
|
|---------------------------------------------------------------|
|---------------------------------------------------------------|
|-14--12--11-----14--12--11-------12---11-------11--------------|
|-------------------------------------------14------------------|
|---------------------------------------------------------------|
|---------------------------------------------------------------|

                                          gtrs. 1&2 w/rhy
|------------------------------------------||------------------|
|------------------------------------------||------------------|
|------------------------------------------||------------------|
|-14---14--12-----12--14--12~~~~----(12)\--||------------------|
|--------------14--------------------------||------------------|
|------------------------------------------||------------------|


|-----------------------------------------|---------------------|
|---15------------15---15-----15--15--15--|---15\---------------|
|-------x--x--x------------x--------------|---------------------|
|-----------------------------------------|---------------------|
|-----------------------------------------|---------------------|
|-----------------------------------------|---------------------|


                                                        1bend rel.
|---------------------------------------------------|-----------|
|-15-----15--15------15--15--12--15-----12--15--15--|-15^~~(15)\|
|----------------12---------------------------------|-----------|
|---------------------------------------------------|-----------|
|---------------------------------------------------|-----------|
|---------------------------------------------------|-----------|

                                                  FADE OUT
|-------------------------------------------------|-------------|
|-15----15--15------15--15--15^----12--12--15--15-|--15-\-------|
|---------------12--------------------------------|-------------|
|-------------------------------------------------|-------------|
|-------------------------------------------------|-------------|
|-------------------------------------------------|-------------|
            

comments powered by Disqus
↑ Back to top | Quiet Riot Tabs for Come Feel The Noise. Lyrics for acoustic guitar and electric guitar. Tablatures and chords are parodies/interpretations of the original songs. You may use it for private study, scholarship, research or language learning purposes only