» » »

Quiet Riot, Bang Your Head (Metal Health) Bass tabs (ver.1)

Artists:  A B C D E F G H I J K L M N O P Q R S T U V W X Y Z # 

Bang Your Head (Metal Health) Bass tabs (ver.1)

Quiet Riot Tabs
 Rating:
4/5 (4 votes)
Bang Your Head (Metal Health) lessons Tabs too difficult? Try these video lessons and learn fast
1
                -------------------------------------------------------------------------------
			 Bang Your Head-Quiet Riot
-------------------------------------------------------------------------------

Heres my take of the song. I recommended playing with your fingers. 
Intro/After solo riff
G|----------------------|x2
D|----------------------|
A|----3---------3---3---|
E|5------3----3---5---5\|
Main Riff/Chorus(Repeat alot. At the ending solo after chorus start the riff over)
G|-------------------------------------------------------------------|
D|-------------------------------------------------------------------|
A|-----------3----------3--3------------33\--------3----------3--3---|
E|55555555555--333333333--5--55555555555---55555555--333333333--5--5-|
Fill pre Verse
G|14-12------------|
D|-----12-10-------|
A|----------10-9-10|
E|-----------------|
Verse
G|------------------------------------| Repeat until you hear a change
D|-----------------------------------4|
A|0-000-000-3-0-000-000-3-0-000-000 3-|
E|------------------------------------|
Pre Chorus
G|-----------------------------------------------|
D|---------4------------5------------6---------47|
A|000000000-000000000000-000000000000-0000000005-|
E|-----------------------------------------------|
Guitar Solo
G|------------------------------------------|
D|------------------------------------------|
A|-----Bass fill-----bass fill-----bass fill|
E|7-777---------5-555---------3 333 --------|

I couldn't figure out what is played during the solo so I just put bass fill. 
Lyrics
(Play intro)
(Play verse)
Well I'm an
Axegrinder, piledriver
Mother says that
I never, never mind her
Got no brains I'm insane
The teacher says that
I'm one big pain
(Play pre-chorus)
I'm like a laser
6-streamin' razor
I got a mouth like
An alligator
I want it louder
More power
I'm gonna rock ya
'Till it strikes the hour
(play chorus)
Bang your head
Metal Health'll drive you mad
Band your head
Metal Health'll drive you mad
Alright!
(Verse)
Well I'm remonstrated
Outdated I really want
To be over-rated
I'm a finder and I'm a keeper
I'm not a loser and
I ain't no weeper
(Pre-chorus)
I got the boys
To make the noise
Won't ever let up
Hope it annoys you
Join the pack, Fill the crack
Well now you're here
There's no way back
(play chorus)
Bang your head
Metal Health'll drive you mad
Bang your head
Metal Health'll drive you mad
Metal Health'll cure your crazy
Metal Health'll cure your mad
Metal Health is what we a-a-a-a-all need
It's what you outta to have
(play solo fig)
[Guitar Solo]
(Play intro)
(Play chorus for bass solo thing. Add some fills)
Bang your head
Wake the dead
We're all metal mad
It's all you have
So bang your head
And raise the dead
Oh yeah!
Metal Health
It's not too bad
Bad, Bad, Bad

Bang your head
Metal Health'll drive you mad
Bang your head
Metal Health'll drive you mad
Oh get your
Straight-jackets on tonight
Oh!
Metal Health'll drive you mad
The bad boys are gonna set you right
Oh... Rock on Rock on Rock on
Metal health'll drive you mad
Bang your head!
            
Submit corrections

comments powered by Disqus
↑ Back to top | Quiet Riot Bass for Bang Your Head (Metal Health). Lyrics for acoustic guitar and electric guitar. 1 Tablatures and chords are parodies/interpretations of the original songs. You may use it for private study, scholarship, research or language learning purposes only