» » »

Time After Time Tabs (ver.2)

Artists:  A B C D E F G H I J K L M N O P Q R S T U V W X Y Z # 

Time After Time Tabs (ver.2)

Quietdrive
Rating:
4/5 (2 votes)
Tabs too difficult? Try these video lessons and learn fast.
                Time after time – Quiet drive

Jhg629 wrote this tab but it only had the first part. I have put in where it repeats.

E|-----0-------0-------0-------0-------0-------0-------0-------0--|
B|-1-1---1-1-1---1-1-1---1-1-1---1-1-1---1-1-1---1-1-1---1-1-1----|
G|----------------------------------------------------------------|
D|----------------------------------------------------------------|
A|----------------------------------------------------------------|
E|----------------------------------------------------------------|

E|--------0--------------------0-0------0-----------------0-0-----|
B|-3--1-1---3--1-1--1-3-1--1-3------3-1---3-1--1-3-1--1-3---------|
G|----------------------------------------------------------------|
D|----------------------------------------------------------------|
A|----------------------------------------------------------------|
E|----------------------------------------------------------------|

E|--------------------------------|
B|-1-3--0-1--1-1-0----1-1-0-------|
G|-----------------0--------0-2-2-|
D|--------------------------------|
A|--------------------------------|
E|--------------------------------|


E|-3-3-3-0-3-3-0-3-3-5-0--0-0--0--3-3-3-0-3-3-0-3-3-5-0--0-0---0--|
B|----------------------------3------------------------------3----|
G|----------------------------------------------------------------|
D|----------------------------------------------------------------|
A|----------------------------------------------------------------|
E|----------------------------------------------------------------|


E|------------------|
B|-1-1-0-1--1-1-0-1-|
G|------------------|
D|------------------|
A|------------------|
E|------------------|

E|--------0--------------------0-0------0-----------------0-0-----|
B|-3--1-1---3--1-1--1-3-1--1-3------3-1---3-1--1-3-1--1-3---------|
G|----------------------------------------------------------------|
D|----------------------------------------------------------------|
A|----------------------------------------------------------------|
E|----------------------------------------------------------------|

E|--------------------------------|
B|-1-3--0-1--1-1-0----1-1-0-------|
G|-----------------0--------0-2-2-|
D|--------------------------------|
A|--------------------------------|
E|--------------------------------|

E|-3-3-3-0-3-3-0-3-3-5-0--0-0--0--3-3-3-0-3-3-0-3-3-5-0--0-0---0--|
B|----------------------------3------------------------------3----|
G|----------------------------------------------------------------|
D|----------------------------------------------------------------|
A|----------------------------------------------------------------|
E|----------------------------------------------------------------|




E|--------0--------------------0-0------0-----------------0-0-----|
B|-3--1-1---3--1-1--1-3-1--1-3------3-1---3-1--1-3-1--1-3---------|
G|----------------------------------------------------------------|
D|----------------------------------------------------------------|
A|----------------------------------------------------------------|
E|----------------------------------------------------------------|

E|--------------------------------|
B|-1-3--0-1--1-1-0----1-1-0-------|
G|-----------------0--------0-2-2-|
D|--------------------------------|
A|--------------------------------|
E|--------------------------------|

E|-3-3-3-0-3-3-0-3-3-5-0--0-0--0--3-3-3-0-3-3-0-3-3-5-0--0-0---0--|
B|----------------------------3------------------------------3----|
G|----------------------------------------------------------------|
D|----------------------------------------------------------------|
A|----------------------------------------------------------------|
E|----------------------------------------------------------------|

E|-3-3-3-0-3-3-0-3-3-5-0--0-0--0--3-3-3-0-3-3-0-3-3-5-0--0-0---0--|
B|----------------------------3------------------------------3----|
G|----------------------------------------------------------------|
D|----------------------------------------------------------------|
A|----------------------------------------------------------------|
E|----------------------------------------------------------------|


E|------------------|
B|-1-1-0-1--1-1-0-1-|
G|------------------|
D|------------------|
A|------------------|
E|------------------|
            
Tabs too difficult? Try these video lessons and learn fast.


comments powered by Disqus
↑ Back to top | Tablatures and chords are parodies/interpretations of the original songs. You may use it for private study, scholarship, research or language learning purposes only